  0
SECTION
  2
HEADER
  9
$ACADVER
  1
AC1009
  9
$INSBASE
 10
0.0
 20
0.0
 30
0.0
  9
$EXTMIN
 10
-170.0164782349211
 20
-265.80211091866681
 30
-0.0015258207003583
  9
$EXTMAX
 10
370.0164807494923
 20
537.08808227102497
 30
0.0000000349246037
  9
$LIMMIN
 10
0.0
 20
0.0
  9
$LIMMAX
 10
0.0
 20
0.0
  9
$ORTHOMODE
 70
     0
  9
$REGENMODE
 70
     1
  9
$FILLMODE
 70
     1
  9
$QTEXTMODE
 70
     0
  9
$MIRRTEXT
 70
     1
  9
$DRAGMODE
 70
     2
  9
$LTSCALE
 40
15.24
  9
$OSMODE
 70
   231
  9
$ATTMODE
 70
     1
  9
$TEXTSIZE
 40
0.0
  9
$TRACEWID
 40
1.0
  9
$TEXTSTYLE
  7
STANDARD
  9
$CLAYER
  8
DATA
  9
$CELTYPE
  6
BYLAYER
  9
$CECOLOR
 62
   256
  9
$DIMSCALE
 40
1.0
  9
$DIMASZ
 40
0.18
  9
$DIMEXO
 40
0.0625
  9
$DIMDLI
 40
0.38
  9
$DIMRND
 40
0.0
  9
$DIMDLE
 40
0.0
  9
$DIMEXE
 40
0.18
  9
$DIMTP
 40
0.0
  9
$DIMTM
 40
0.0
  9
$DIMTXT
 40
0.18
  9
$DIMCEN
 40
0.09
  9
$DIMTSZ
 40
0.0
  9
$DIMTOL
 70
     0
  9
$DIMLIM
 70
     0
  9
$DIMTIH
 70
     1
  9
$DIMTOH
 70
     1
  9
$DIMSE1
 70
     0
  9
$DIMSE2
 70
     0
  9
$DIMTAD
 70
     0
  9
$DIMZIN
 70
     0
  9
$DIMBLK
  1

  9
$DIMASO
 70
     1
  9
$DIMSHO
 70
     1
  9
$DIMPOST
  1

  9
$DIMAPOST
  1

  9
$DIMALT
 70
     0
  9
$DIMALTD
 70
     2
  9
$DIMALTF
 40
25.399999999999999
  9
$DIMLFAC
 40
1.0
  9
$DIMTOFL
 70
     0
  9
$DIMTVP
 40
0.0
  9
$DIMTIX
 70
     0
  9
$DIMSOXD
 70
     0
  9
$DIMSAH
 70
     0
  9
$DIMBLK1
  1

  9
$DIMBLK2
  1

  9
$DIMSTYLE
  2
STANDARD
  9
$DIMCLRD
 70
     0
  9
$DIMCLRE
 70
     0
  9
$DIMCLRT
 70
     0
  9
$DIMTFAC
 40
1.0
  9
$DIMGAP
 40
0.09
  9
$LUNITS
 70
     2
  9
$LUPREC
 70
     4
  9
$SKETCHINC
 40
0.1
  9
$FILLETRAD
 40
0.0
  9
$AUNITS
 70
     0
  9
$AUPREC
 70
     0
  9
$MENU
  1
acad
  9
$ELEVATION
 40
0.0
  9
$PELEVATION
 40
0.0
  9
$THICKNESS
 40
0.0
  9
$LIMCHECK
 70
     0
  9
$BLIPMODE
 70
     0
  9
$CHAMFERA
 40
0.0
  9
$CHAMFERB
 40
0.0
  9
$SKPOLY
 70
     0
  9
$TDCREATE
 40
2455037.7209143522
  9
$TDUPDATE
 40
2455037.736912095
  9
$TDINDWG
 40
0.0003102662
  9
$TDUSRTIMER
 40
0.000310081
  9
$USRTIMER
 70
     1
  9
$ANGBASE
 50
0.0
  9
$ANGDIR
 70
     0
  9
$PDMODE
 70
     1
  9
$PDSIZE
 40
-2.0
  9
$PLINEWID
 40
0.0
  9
$COORDS
 70
     0
  9
$SPLFRAME
 70
     0
  9
$SPLINETYPE
 70
     6
  9
$SPLINESEGS
 70
     8
  9
$ATTDIA
 70
     0
  9
$ATTREQ
 70
     1
  9
$HANDLING
 70
     1
  9
$HANDSEED
  5
4F9
  9
$SURFTAB1
 70
     6
  9
$SURFTAB2
 70
     6
  9
$SURFTYPE
 70
     6
  9
$SURFU
 70
     6
  9
$SURFV
 70
     6
  9
$UCSNAME
  2

  9
$UCSORG
 10
0.0
 20
0.0
 30
0.0
  9
$UCSXDIR
 10
1.0
 20
0.0
 30
0.0
  9
$UCSYDIR
 10
0.0
 20
1.0
 30
0.0
  9
$PUCSNAME
  2

  9
$PUCSORG
 10
0.0
 20
0.0
 30
0.0
  9
$PUCSXDIR
 10
1.0
 20
0.0
 30
0.0
  9
$PUCSYDIR
 10
0.0
 20
1.0
 30
0.0
  9
$USERI1
 70
     0
  9
$USERI2
 70
     0
  9
$USERI3
 70
     0
  9
$USERI4
 70
     0
  9
$USERI5
 70
     0
  9
$USERR1
 40
0.0
  9
$USERR2
 40
0.0
  9
$USERR3
 40
0.0
  9
$USERR4
 40
0.0
  9
$USERR5
 40
0.0
  9
$WORLDVIEW
 70
     1
  9
$SHADEDGE
 70
     3
  9
$SHADEDIF
 70
    70
  9
$TILEMODE
 70
     1
  9
$MAXACTVP
 70
    64
  9
$PLIMCHECK
 70
     0
  9
$PEXTMIN
 10
1.0000000000000000E+020
 20
1.0000000000000000E+020
 30
1.0000000000000000E+020
  9
$PEXTMAX
 10
-1.0000000000000000E+020
 20
-1.0000000000000000E+020
 30
-1.0000000000000000E+020
  9
$PLIMMIN
 10
0.0
 20
0.0
  9
$PLIMMAX
 10
12.0
 20
9.0
  9
$UNITMODE
 70
     0
  9
$VISRETAIN
 70
     0
  9
$PLINEGEN
 70
     1
  9
$PSLTSCALE
 70
     0
  0
ENDSEC
  0
SECTION
  2
TABLES
  0
TABLE
  2
VPORT
 70
     1
  0
VPORT
  2
*ACTIVE
 70
     0
 10
0.0
 20
0.0
 11
1.0
 21
1.0
 12
100.0000012572857
 22
135.64298567617911
 13
0.0
 23
0.0
 14
1.0
 24
1.0
 15
0.0
 25
0.0
 16
0.0
 26
0.0
 36
1.0
 17
0.0
 27
0.0
 37
0.0
 40
808.80830272180265
 41
1.964329643296433
 42
50.0
 43
0.0
 44
0.0
 50
0.0
 51
0.0
 71
     0
 72
  2000
 73
     1
 74
     1
 75
     0
 76
     0
 77
     0
 78
     0
  0
ENDTAB
  0
TABLE
  2
LTYPE
 70
    11
  0
LTYPE
  2
CONTINUOUS
 70
     0
  3
Solid line
 72
    65
 73
     0
 40
0.0
  0
LTYPE
  2
STYLE_05
 70
     0
  3

 72
    65
 73
     2
 40
0.208282470703125
 49
0.069427490234375
 49
-0.13885498046875
  0
ENDTAB
  0
TABLE
  2
LAYER
 70
     6
  0
LAYER
  2
0
 70
     0
 62
     7
  6
CONTINUOUS
  0
LAYER
  2
DATA
 70
     0
 62
     7
  6
CONTINUOUS
  0
LAYER
  2
HIBINO-BASE
 70
     0
 62
     7
  6
CONTINUOUS
  0
LAYER
  2
PATTERN_FILL
 70
     0
 62
     7
  6
CONTINUOUS
  0
LAYER
  2
SPEC
 70
     0
 62
     7
  6
CONTINUOUS
  0
LAYER
  2
DIMNSIONS
 70
     0
 62
     7
  6
CONTINUOUS
  0
ENDTAB
  0
TABLE
  2
STYLE
 70
     3
  0
STYLE
  2
STANDARD
 70
     0
 40
0.0
 41
1.0
 50
0.0
 71
     0
 42
0.0
  3
txt
  4
BIGFONT.SHX
  0
ENDTAB
  0
TABLE
  2
VIEW
 70
     0
  0
ENDTAB
  0
TABLE
  2
UCS
 70
     0
  0
ENDTAB
  0
TABLE
  2
APPID
 70
     3
  0
APPID
  2
ACAD
 70
     0
  0
APPID
  2
ACADANNOTATIVE
 70
     0
  0
APPID
  2
ACAD_MLEADERVER
 70
     0
  0
ENDTAB
  0
TABLE
  2
DIMSTYLE
 70
     2
  0
DIMSTYLE
  2
STANDARD
 70
     0
  3

  4

  5

  6

  7

 40
1.0
 41
0.18
 42
0.0625
 43
0.38
 44
0.18
 45
0.0
 46
0.0
 47
0.0
 48
0.0
140
0.18
141
0.09
142
0.0
143
25.399999999999999
144
1.0
145
0.0
146
1.0
147
0.09
 71
     0
 72
     0
 73
     1
 74
     1
 75
     0
 76
     0
 77
     0
 78
     0
170
     0
171
     2
172
     0
173
     0
174
     0
175
     0
176
     0
177
     0
178
     0
  0
ENDTAB
  0
ENDSEC
  0
SECTION
  2
BLOCKS
  0
BLOCK
  8
0
  2
$MODEL_SPACE
 70
     0
 10
0.0
 20
0.0
 30
0.0
  3
$MODEL_SPACE
  1

  0
ENDBLK
  5
497
  8
0
  0
BLOCK
 67
     1
  8
0
  2
$PAPER_SPACE
 70
     0
 10
0.0
 20
0.0
 30
0.0
  3
$PAPER_SPACE
  1

  0
ENDBLK
  5
493
 67
     1
  8
0
  0
ENDSEC
  0
SECTION
  2
ENTITIES
  0
LINE
  5
2D
  8
HIBINO-BASE
  6
CONTINUOUS
 62
     7
 10
-169.99999999999989
 20
537.06362999999999
 30
0.0
 11
370.0
 21
537.06362999999999
 31
0.0
  0
LINE
  5
2E
  8
HIBINO-BASE
  6
CONTINUOUS
 62
     7
 10
370.0
 20
-242.93637000000001
 30
0.0
 11
-169.99999999999989
 21
-242.93637000000001
 31
0.0
  0
LINE
  5
2F
  8
HIBINO-BASE
  6
CONTINUOUS
 62
     7
 10
-169.99999999999989
 20
-242.93637000000001
 30
0.0
 11
-169.99999999999989
 21
537.06362999999999
 31
0.0
  0
TEXT
  5
30
  8
HIBINO-BASE
 62
     7
 10
-148.44799999999989
 20
-262.1624033999999
 30
0.0
 40
10.800132539062499
  1
Hibino Corporation
 41
0.7
 11
-148.44799999999989
 21
-251.3622708609374
 31
0.0
 73
     3
  0
LINE
  5
31
  8
HIBINO-BASE
  6
CONTINUOUS
 62
     7
 10
370.0
 20
537.06362999999999
 30
0.0
 11
370.0
 21
-242.93637000000001
 31
0.0
  0
LINE
  5
32
  8
HIBINO-BASE
  6
CONTINUOUS
 62
     7
 10
100.0
 20
-175.4363699999999
 30
0.0
 11
370.0
 21
-175.4363699999999
 31
0.0
  0
LINE
  5
33
  8
HIBINO-BASE
  6
CONTINUOUS
 62
     7
 10
100.0
 20
-242.93637000000001
 30
0.0
 11
100.0
 21
-175.4363699999999
 31
0.0
  0
TEXT
  5
34
  8
HIBINO-BASE
 62
     7
 10
102.7
 20
-182.96244999999999
 30
0.0
 40
4.8865234374999993
  1
NOTE
 41
0.7
 11
102.7
 21
-178.0759265625
 31
0.0
 73
     3
  0
LINE
  5
35
  8
HIBINO-BASE
  6
CONTINUOUS
 62
     7
 10
205.0
 20
-242.93637000000001
 30
0.0
 11
205.0
 21
-175.4363699999999
 31
0.0
  0
TEXT
  5
36
  8
HIBINO-BASE
 62
     7
 10
207.69999999999999
 20
-182.96244999999999
 30
0.0
 40
4.8865234374999993
  1
TITLE
 41
0.7
 11
207.69999999999999
 21
-178.0759265625
 31
0.0
 73
     3
  0
TEXT
  5
37
  8
HIBINO-BASE
 62
     7
 10
250.2051699999999
 20
-262.1624033999999
 30
0.0
 40
10.800132539062499
  1
ヒビノ株式会社
 41
0.7
 11
250.2051699999999
 21
-251.3622708609374
 31
0.0
 73
     3
  0
LINE
  5
38
  8
HIBINO-BASE
  6
CONTINUOUS
 62
     7
 10
100.0
 20
-212.9363699999999
 30
0.0
 11
370.0
 21
-212.9363699999999
 31
0.0
  0
TEXT
  5
39
  8
HIBINO-BASE
 62
     7
 10
245.19999999999999
 20
-220.29348999999999
 30
0.0
 40
4.8865234374999993
  1
DRAWN
 41
0.7
 11
245.19999999999999
 21
-215.4069665625
 31
0.0
 73
     3
  0
TEXT
  5
3A
  8
HIBINO-BASE
 62
     7
 10
170.19999999999999
 20
-220.29348999999999
 30
0.0
 40
4.8865234374999993
  1
DATE
 41
0.7
 11
170.19999999999999
 21
-215.4069665625
 31
0.0
 73
     3
  0
TEXT
  5
3B
  8
HIBINO-BASE
 62
     7
 10
140.19999999999999
 20
-220.29348999999999
 30
0.0
 40
4.8865234374999993
  1
SCALE
 41
0.7
 11
140.19999999999999
 21
-215.4069665625
 31
0.0
 73
     3
  0
TEXT
  5
3C
  8
HIBINO-BASE
 62
     7
 10
207.69999999999999
 20
-220.29348999999999
 30
0.0
 40
4.8865234374999993
  1
DESIGN
 41
0.7
 11
207.69999999999999
 21
-215.4069665625
 31
0.0
 73
     3
  0
TEXT
  5
3D
  8
HIBINO-BASE
 62
     7
 10
320.19999999999999
 20
-220.29348999999999
 30
0.0
 40
4.8865234374999993
  1
DRAWING NO.
 41
0.7
 11
320.19999999999999
 21
-215.4069665625
 31
0.0
 73
     3
  0
TEXT
  5
3E
  8
HIBINO-BASE
 62
     7
 10
282.69999999999999
 20
-220.29348999999999
 30
0.0
 40
4.8865234374999993
  1
CHECK
 41
0.7
 11
282.69999999999999
 21
-215.4069665625
 31
0.0
 73
     3
  0
LINE
  5
3F
  8
HIBINO-BASE
  6
CONTINUOUS
 62
     7
 10
143.12499999999989
 20
-239.18637000000001
 30
0.0
 11
154.375
 21
-227.93637000000001
 31
0.0
  0
TEXT
  5
40
  8
HIBINO-BASE
 62
     7
 10
141.24999999999989
 20
-231.26320000000001
 30
0.0
 40
4.8865234374999993
  1
1
 41
0.7
 11
141.24999999999989
 21
-226.37667656249999
 31
0.0
 73
     3
  0
LINE
  5
41
  8
HIBINO-BASE
  6
CONTINUOUS
 62
     7
 10
137.5
 20
-242.93637000000001
 30
0.0
 11
137.5
 21
-212.9363699999999
 31
0.0
  0
LINE
  5
42
  8
HIBINO-BASE
  6
CONTINUOUS
 62
     7
 10
167.5
 20
-242.93637000000001
 30
0.0
 11
167.5
 21
-212.9363699999999
 31
0.0
  0
LINE
  5
43
  8
HIBINO-BASE
  6
CONTINUOUS
 62
     7
 10
242.5
 20
-212.9363699999999
 30
0.0
 11
242.5
 21
-242.93637000000001
 31
0.0
  0
LINE
  5
44
  8
HIBINO-BASE
  6
CONTINUOUS
 62
     7
 10
317.5
 20
-212.9363699999999
 30
0.0
 11
317.5
 21
-242.93637000000001
 31
0.0
  0
LINE
  5
45
  8
HIBINO-BASE
  6
CONTINUOUS
 62
     7
 10
279.99999999999989
 20
-242.93637000000001
 30
0.0
 11
279.99999999999989
 21
-212.9363699999999
 31
0.0
  0
TEXT
  5
46
  8
HIBINO-BASE
 62
     7
 10
170.06961999999999
 20
-234.34542999999999
 30
0.0
 40
4.8865234374999993
  1
'09.07.
 41
0.7
 11
170.06961999999999
 21
-229.4589065625
 31
0.0
 73
     3
  0
TEXT
  5
47
  8
HIBINO-BASE
 62
     7
 10
152.5
 20
-236.88820000000001
 30
0.0
 40
4.8865234374999993
  1
3
 41
0.7
 11
152.5
 21
-232.00167656249999
 31
0.0
 73
     3
  0
TEXT
  5
48
  8
HIBINO-BASE
 62
     7
 10
247.01743003310389
 20
-234.34542999999999
 30
0.0
 40
4.8865234374999993
  1
N.Sasaki
 41
0.7
 11
247.01743003310389
 21
-229.4589065625
 31
0.0
 73
     3
  0
TEXT
  5
49
  8
HIBINO-BASE
 62
     7
 10
111.65000000000001
 20
-237.00837000000001
 30
0.0
 40
9.7730468749999986
  1
A4
 41
0.7
 11
111.65000000000001
 21
-227.23532312500001
 31
0.0
 73
     3
  0
TEXT
  5
4A
  8
HIBINO-BASE
 62
     7
 10
102.875
 20
-220.794735
 30
0.0
 40
4.8865234374999993
  1
PAPER SIZE
 41
0.7
 11
102.875
 21
-215.90821156249999
 31
0.0
 73
     3
  0
LINE
  5
4B
  8
PATTERN_FILL
  6
CONTINUOUS
 62
     7
 10
-57.799999999999997
 20
267.52999999999997
 30
0.0
 11
-42.200000000000003
 21
267.52999999999997
 31
0.0
  0
LINE
  5
4C
  8
PATTERN_FILL
  6
CONTINUOUS
 62
     7
 10
-57.799999999999997
 20
265.55000000000001
 30
0.0
 11
-42.200000000000003
 21
265.55000000000001
 31
0.0
  0
LINE
  5
4D
  8
PATTERN_FILL
  6
CONTINUOUS
 62
     7
 10
-57.799999999999997
 20
267.52999999999997
 30
0.0
 11
-57.799999999999997
 21
265.55000000000001
 31
0.0
  0
LINE
  5
4E
  8
PATTERN_FILL
  6
CONTINUOUS
 62
     7
 10
-42.200000000000003
 20
267.52999999999997
 30
0.0
 11
-42.200000000000003
 21
265.55000000000001
 31
0.0
  0
LINE
  5
4F
  8
PATTERN_FILL
  6
CONTINUOUS
 62
     7
 10
-57.799999999999997
 20
263.52999999999997
 30
0.0
 11
-42.200000000000003
 21
263.52999999999997
 31
0.0
  0
LINE
  5
50
  8
PATTERN_FILL
  6
CONTINUOUS
 62
     7
 10
-57.799999999999997
 20
261.55000000000001
 30
0.0
 11
-42.200000000000003
 21
261.55000000000001
 31
0.0
  0
LINE
  5
51
  8
PATTERN_FILL
  6
CONTINUOUS
 62
     7
 10
-57.799999999999997
 20
263.52999999999997
 30
0.0
 11
-57.799999999999997
 21
261.55000000000001
 31
0.0
  0
LINE
  5
52
  8
PATTERN_FILL
  6
CONTINUOUS
 62
     7
 10
-42.200000000000003
 20
263.52999999999997
 30
0.0
 11
-42.200000000000003
 21
261.55000000000001
 31
0.0
  0
LINE
  5
53
  8
PATTERN_FILL
  6
CONTINUOUS
 62
     7
 10
-57.799999999999997
 20
259.52999999999997
 30
0.0
 11
-42.200000000000003
 21
259.52999999999997
 31
0.0
  0
LINE
  5
54
  8
PATTERN_FILL
  6
CONTINUOUS
 62
     7
 10
-57.799999999999997
 20
257.55000000000001
 30
0.0
 11
-42.200000000000003
 21
257.55000000000001
 31
0.0
  0
LINE
  5
55
  8
PATTERN_FILL
  6
CONTINUOUS
 62
     7
 10
-57.799999999999997
 20
259.52999999999997
 30
0.0
 11
-57.799999999999997
 21
257.55000000000001
 31
0.0
  0
LINE
  5
56
  8
PATTERN_FILL
  6
CONTINUOUS
 62
     7
 10
-42.200000000000003
 20
259.52999999999997
 30
0.0
 11
-42.200000000000003
 21
257.55000000000001
 31
0.0
  0
LINE
  5
57
  8
PATTERN_FILL
  6
CONTINUOUS
 62
     7
 10
-57.799999999999997
 20
255.53
 30
0.0
 11
-42.200000000000003
 21
255.53
 31
0.0
  0
LINE
  5
58
  8
PATTERN_FILL
  6
CONTINUOUS
 62
     7
 10
-57.799999999999997
 20
253.55000000000001
 30
0.0
 11
-42.200000000000003
 21
253.55000000000001
 31
0.0
  0
LINE
  5
59
  8
PATTERN_FILL
  6
CONTINUOUS
 62
     7
 10
-57.799999999999997
 20
255.53
 30
0.0
 11
-57.799999999999997
 21
253.55000000000001
 31
0.0
  0
LINE
  5
5A
  8
PATTERN_FILL
  6
CONTINUOUS
 62
     7
 10
-42.200000000000003
 20
255.53
 30
0.0
 11
-42.200000000000003
 21
253.55000000000001
 31
0.0
  0
LINE
  5
5B
  8
PATTERN_FILL
  6
CONTINUOUS
 62
     7
 10
-57.799999999999997
 20
251.53
 30
0.0
 11
-42.200000000000003
 21
251.53
 31
0.0
  0
LINE
  5
5C
  8
PATTERN_FILL
  6
CONTINUOUS
 62
     7
 10
-57.799999999999997
 20
249.55000000000001
 30
0.0
 11
-42.200000000000003
 21
249.55000000000001
 31
0.0
  0
LINE
  5
5D
  8
PATTERN_FILL
  6
CONTINUOUS
 62
     7
 10
-57.799999999999997
 20
251.53
 30
0.0
 11
-57.799999999999997
 21
249.55000000000001
 31
0.0
  0
LINE
  5
5E
  8
PATTERN_FILL
  6
CONTINUOUS
 62
     7
 10
-42.200000000000003
 20
251.53
 30
0.0
 11
-42.200000000000003
 21
249.55000000000001
 31
0.0
  0
LINE
  5
5F
  8
PATTERN_FILL
  6
CONTINUOUS
 62
     7
 10
-57.799999999999997
 20
247.53
 30
0.0
 11
-42.200000000000003
 21
247.53
 31
0.0
  0
LINE
  5
60
  8
PATTERN_FILL
  6
CONTINUOUS
 62
     7
 10
-57.799999999999997
 20
245.55000000000001
 30
0.0
 11
-42.200000000000003
 21
245.55000000000001
 31
0.0
  0
LINE
  5
61
  8
PATTERN_FILL
  6
CONTINUOUS
 62
     7
 10
-57.799999999999997
 20
247.53
 30
0.0
 11
-57.799999999999997
 21
245.55000000000001
 31
0.0
  0
LINE
  5
62
  8
PATTERN_FILL
  6
CONTINUOUS
 62
     7
 10
-42.200000000000003
 20
247.53
 30
0.0
 11
-42.200000000000003
 21
245.55000000000001
 31
0.0
  0
LINE
  5
63
  8
PATTERN_FILL
  6
CONTINUOUS
 62
     7
 10
-57.799999999999997
 20
243.53
 30
0.0
 11
-42.200000000000003
 21
243.53
 31
0.0
  0
LINE
  5
64
  8
PATTERN_FILL
  6
CONTINUOUS
 62
     7
 10
-57.799999999999997
 20
241.55000000000001
 30
0.0
 11
-42.200000000000003
 21
241.55000000000001
 31
0.0
  0
LINE
  5
65
  8
PATTERN_FILL
  6
CONTINUOUS
 62
     7
 10
-57.799999999999997
 20
243.53
 30
0.0
 11
-57.799999999999997
 21
241.55000000000001
 31
0.0
  0
LINE
  5
66
  8
PATTERN_FILL
  6
CONTINUOUS
 62
     7
 10
-42.200000000000003
 20
243.53
 30
0.0
 11
-42.200000000000003
 21
241.55000000000001
 31
0.0
  0
LINE
  5
67
  8
PATTERN_FILL
  6
CONTINUOUS
 62
     7
 10
-57.799999999999997
 20
239.53
 30
0.0
 11
-42.200000000000003
 21
239.53
 31
0.0
  0
LINE
  5
68
  8
PATTERN_FILL
  6
CONTINUOUS
 62
     7
 10
-57.799999999999997
 20
237.55000000000001
 30
0.0
 11
-42.200000000000003
 21
237.55000000000001
 31
0.0
  0
LINE
  5
69
  8
PATTERN_FILL
  6
CONTINUOUS
 62
     7
 10
-57.799999999999997
 20
239.53
 30
0.0
 11
-57.799999999999997
 21
237.55000000000001
 31
0.0
  0
LINE
  5
6A
  8
PATTERN_FILL
  6
CONTINUOUS
 62
     7
 10
-42.200000000000003
 20
239.53
 30
0.0
 11
-42.200000000000003
 21
237.55000000000001
 31
0.0
  0
LINE
  5
6B
  8
PATTERN_FILL
  6
CONTINUOUS
 62
     7
 10
-57.799999999999997
 20
235.53
 30
0.0
 11
-42.200000000000003
 21
235.53
 31
0.0
  0
LINE
  5
6C
  8
PATTERN_FILL
  6
CONTINUOUS
 62
     7
 10
-57.799999999999997
 20
233.55000000000001
 30
0.0
 11
-42.200000000000003
 21
233.55000000000001
 31
0.0
  0
LINE
  5
6D
  8
PATTERN_FILL
  6
CONTINUOUS
 62
     7
 10
-57.799999999999997
 20
235.53
 30
0.0
 11
-57.799999999999997
 21
233.55000000000001
 31
0.0
  0
LINE
  5
6E
  8
PATTERN_FILL
  6
CONTINUOUS
 62
     7
 10
-42.200000000000003
 20
235.53
 30
0.0
 11
-42.200000000000003
 21
233.55000000000001
 31
0.0
  0
LINE
  5
6F
  8
PATTERN_FILL
  6
CONTINUOUS
 62
     7
 10
-57.799999999999997
 20
231.53
 30
0.0
 11
-42.200000000000003
 21
231.53
 31
0.0
  0
LINE
  5
70
  8
PATTERN_FILL
  6
CONTINUOUS
 62
     7
 10
-57.799999999999997
 20
229.55000000000001
 30
0.0
 11
-42.200000000000003
 21
229.55000000000001
 31
0.0
  0
LINE
  5
71
  8
PATTERN_FILL
  6
CONTINUOUS
 62
     7
 10
-57.799999999999997
 20
231.53
 30
0.0
 11
-57.799999999999997
 21
229.55000000000001
 31
0.0
  0
LINE
  5
72
  8
PATTERN_FILL
  6
CONTINUOUS
 62
     7
 10
-42.200000000000003
 20
231.53
 30
0.0
 11
-42.200000000000003
 21
229.55000000000001
 31
0.0
  0
LINE
  5
73
  8
PATTERN_FILL
  6
CONTINUOUS
 62
     7
 10
-57.799999999999997
 20
227.53
 30
0.0
 11
-42.200000000000003
 21
227.53
 31
0.0
  0
LINE
  5
74
  8
PATTERN_FILL
  6
CONTINUOUS
 62
     7
 10
-57.799999999999997
 20
225.55000000000001
 30
0.0
 11
-42.200000000000003
 21
225.55000000000001
 31
0.0
  0
LINE
  5
75
  8
PATTERN_FILL
  6
CONTINUOUS
 62
     7
 10
-57.799999999999997
 20
227.53
 30
0.0
 11
-57.799999999999997
 21
225.55000000000001
 31
0.0
  0
LINE
  5
76
  8
PATTERN_FILL
  6
CONTINUOUS
 62
     7
 10
-42.200000000000003
 20
227.53
 30
0.0
 11
-42.200000000000003
 21
225.55000000000001
 31
0.0
  0
LINE
  5
77
  8
PATTERN_FILL
  6
CONTINUOUS
 62
     7
 10
-57.799999999999997
 20
223.53
 30
0.0
 11
-42.200000000000003
 21
223.53
 31
0.0
  0
LINE
  5
78
  8
PATTERN_FILL
  6
CONTINUOUS
 62
     7
 10
-57.799999999999997
 20
221.55000000000001
 30
0.0
 11
-42.200000000000003
 21
221.55000000000001
 31
0.0
  0
LINE
  5
79
  8
PATTERN_FILL
  6
CONTINUOUS
 62
     7
 10
-57.799999999999997
 20
223.53
 30
0.0
 11
-57.799999999999997
 21
221.55000000000001
 31
0.0
  0
LINE
  5
7A
  8
PATTERN_FILL
  6
CONTINUOUS
 62
     7
 10
-42.200000000000003
 20
223.53
 30
0.0
 11
-42.200000000000003
 21
221.55000000000001
 31
0.0
  0
LINE
  5
7B
  8
PATTERN_FILL
  6
CONTINUOUS
 62
     7
 10
-57.799999999999997
 20
219.53
 30
0.0
 11
-42.200000000000003
 21
219.53
 31
0.0
  0
LINE
  5
7C
  8
PATTERN_FILL
  6
CONTINUOUS
 62
     7
 10
-57.799999999999997
 20
217.55000000000001
 30
0.0
 11
-42.200000000000003
 21
217.55000000000001
 31
0.0
  0
LINE
  5
7D
  8
PATTERN_FILL
  6
CONTINUOUS
 62
     7
 10
-57.799999999999997
 20
219.53
 30
0.0
 11
-57.799999999999997
 21
217.55000000000001
 31
0.0
  0
LINE
  5
7E
  8
PATTERN_FILL
  6
CONTINUOUS
 62
     7
 10
-42.200000000000003
 20
219.53
 30
0.0
 11
-42.200000000000003
 21
217.55000000000001
 31
0.0
  0
LINE
  5
7F
  8
PATTERN_FILL
  6
CONTINUOUS
 62
     7
 10
-57.799999999999997
 20
215.53
 30
0.0
 11
-42.200000000000003
 21
215.53
 31
0.0
  0
LINE
  5
80
  8
PATTERN_FILL
  6
CONTINUOUS
 62
     7
 10
-57.799999999999997
 20
213.55000000000001
 30
0.0
 11
-42.200000000000003
 21
213.55000000000001
 31
0.0
  0
LINE
  5
81
  8
PATTERN_FILL
  6
CONTINUOUS
 62
     7
 10
-57.799999999999997
 20
215.53
 30
0.0
 11
-57.799999999999997
 21
213.55000000000001
 31
0.0
  0
LINE
  5
82
  8
PATTERN_FILL
  6
CONTINUOUS
 62
     7
 10
-42.200000000000003
 20
215.53
 30
0.0
 11
-42.200000000000003
 21
213.55000000000001
 31
0.0
  0
LINE
  5
83
  8
PATTERN_FILL
  6
CONTINUOUS
 62
     7
 10
-57.799999999999997
 20
211.53
 30
0.0
 11
-42.200000000000003
 21
211.53
 31
0.0
  0
LINE
  5
84
  8
PATTERN_FILL
  6
CONTINUOUS
 62
     7
 10
-57.799999999999997
 20
209.55000000000001
 30
0.0
 11
-42.200000000000003
 21
209.55000000000001
 31
0.0
  0
LINE
  5
85
  8
PATTERN_FILL
  6
CONTINUOUS
 62
     7
 10
-57.799999999999997
 20
211.53
 30
0.0
 11
-57.799999999999997
 21
209.55000000000001
 31
0.0
  0
LINE
  5
86
  8
PATTERN_FILL
  6
CONTINUOUS
 62
     7
 10
-42.200000000000003
 20
211.53
 30
0.0
 11
-42.200000000000003
 21
209.55000000000001
 31
0.0
  0
LINE
  5
87
  8
PATTERN_FILL
  6
CONTINUOUS
 62
     7
 10
-57.799999999999997
 20
207.53
 30
0.0
 11
-42.200000000000003
 21
207.53
 31
0.0
  0
LINE
  5
88
  8
PATTERN_FILL
  6
CONTINUOUS
 62
     7
 10
-57.799999999999997
 20
205.55000000000001
 30
0.0
 11
-42.200000000000003
 21
205.55000000000001
 31
0.0
  0
LINE
  5
89
  8
PATTERN_FILL
  6
CONTINUOUS
 62
     7
 10
-57.799999999999997
 20
207.53
 30
0.0
 11
-57.799999999999997
 21
205.55000000000001
 31
0.0
  0
LINE
  5
8A
  8
PATTERN_FILL
  6
CONTINUOUS
 62
     7
 10
-42.200000000000003
 20
207.53
 30
0.0
 11
-42.200000000000003
 21
205.55000000000001
 31
0.0
  0
LINE
  5
8B
  8
PATTERN_FILL
  6
CONTINUOUS
 62
     7
 10
-57.799999999999997
 20
203.53
 30
0.0
 11
-42.200000000000003
 21
203.53
 31
0.0
  0
LINE
  5
8C
  8
PATTERN_FILL
  6
CONTINUOUS
 62
     7
 10
-57.799999999999997
 20
201.55000000000001
 30
0.0
 11
-42.200000000000003
 21
201.55000000000001
 31
0.0
  0
LINE
  5
8D
  8
PATTERN_FILL
  6
CONTINUOUS
 62
     7
 10
-57.799999999999997
 20
203.53
 30
0.0
 11
-57.799999999999997
 21
201.55000000000001
 31
0.0
  0
LINE
  5
8E
  8
PATTERN_FILL
  6
CONTINUOUS
 62
     7
 10
-42.200000000000003
 20
203.53
 30
0.0
 11
-42.200000000000003
 21
201.55000000000001
 31
0.0
  0
LINE
  5
8F
  8
PATTERN_FILL
  6
CONTINUOUS
 62
     7
 10
-57.799999999999997
 20
199.53
 30
0.0
 11
-42.200000000000003
 21
199.53
 31
0.0
  0
LINE
  5
90
  8
PATTERN_FILL
  6
CONTINUOUS
 62
     7
 10
-57.799999999999997
 20
197.55000000000001
 30
0.0
 11
-42.200000000000003
 21
197.55000000000001
 31
0.0
  0
LINE
  5
91
  8
PATTERN_FILL
  6
CONTINUOUS
 62
     7
 10
-57.799999999999997
 20
199.53
 30
0.0
 11
-57.799999999999997
 21
197.55000000000001
 31
0.0
  0
LINE
  5
92
  8
PATTERN_FILL
  6
CONTINUOUS
 62
     7
 10
-42.200000000000003
 20
199.53
 30
0.0
 11
-42.200000000000003
 21
197.55000000000001
 31
0.0
  0
LINE
  5
93
  8
PATTERN_FILL
  6
CONTINUOUS
 62
     7
 10
-57.799999999999997
 20
195.53
 30
0.0
 11
-42.200000000000003
 21
195.53
 31
0.0
  0
LINE
  5
94
  8
PATTERN_FILL
  6
CONTINUOUS
 62
     7
 10
-57.799999999999997
 20
193.55000000000001
 30
0.0
 11
-42.200000000000003
 21
193.55000000000001
 31
0.0
  0
LINE
  5
95
  8
PATTERN_FILL
  6
CONTINUOUS
 62
     7
 10
-57.799999999999997
 20
195.53
 30
0.0
 11
-57.799999999999997
 21
193.55000000000001
 31
0.0
  0
LINE
  5
96
  8
PATTERN_FILL
  6
CONTINUOUS
 62
     7
 10
-42.200000000000003
 20
195.53
 30
0.0
 11
-42.200000000000003
 21
193.55000000000001
 31
0.0
  0
LINE
  5
97
  8
PATTERN_FILL
  6
CONTINUOUS
 62
     7
 10
-57.799999999999997
 20
191.53
 30
0.0
 11
-42.200000000000003
 21
191.53
 31
0.0
  0
LINE
  5
98
  8
PATTERN_FILL
  6
CONTINUOUS
 62
     7
 10
-57.799999999999997
 20
189.55000000000001
 30
0.0
 11
-42.200000000000003
 21
189.55000000000001
 31
0.0
  0
LINE
  5
99
  8
PATTERN_FILL
  6
CONTINUOUS
 62
     7
 10
-57.799999999999997
 20
191.53
 30
0.0
 11
-57.799999999999997
 21
189.55000000000001
 31
0.0
  0
LINE
  5
9A
  8
PATTERN_FILL
  6
CONTINUOUS
 62
     7
 10
-42.200000000000003
 20
191.53
 30
0.0
 11
-42.200000000000003
 21
189.55000000000001
 31
0.0
  0
LINE
  5
9B
  8
PATTERN_FILL
  6
CONTINUOUS
 62
     7
 10
-57.799999999999997
 20
187.53
 30
0.0
 11
-42.200000000000003
 21
187.53
 31
0.0
  0
LINE
  5
9C
  8
PATTERN_FILL
  6
CONTINUOUS
 62
     7
 10
-57.799999999999997
 20
185.55000000000001
 30
0.0
 11
-42.200000000000003
 21
185.55000000000001
 31
0.0
  0
LINE
  5
9D
  8
PATTERN_FILL
  6
CONTINUOUS
 62
     7
 10
-57.799999999999997
 20
187.53
 30
0.0
 11
-57.799999999999997
 21
185.55000000000001
 31
0.0
  0
LINE
  5
9E
  8
PATTERN_FILL
  6
CONTINUOUS
 62
     7
 10
-42.200000000000003
 20
187.53
 30
0.0
 11
-42.200000000000003
 21
185.55000000000001
 31
0.0
  0
LINE
  5
9F
  8
PATTERN_FILL
  6
CONTINUOUS
 62
     7
 10
-57.799999999999997
 20
183.53
 30
0.0
 11
-42.200000000000003
 21
183.53
 31
0.0
  0
LINE
  5
A0
  8
PATTERN_FILL
  6
CONTINUOUS
 62
     7
 10
-57.799999999999997
 20
181.55000000000001
 30
0.0
 11
-42.200000000000003
 21
181.55000000000001
 31
0.0
  0
LINE
  5
A1
  8
PATTERN_FILL
  6
CONTINUOUS
 62
     7
 10
-57.799999999999997
 20
183.53
 30
0.0
 11
-57.799999999999997
 21
181.55000000000001
 31
0.0
  0
LINE
  5
A2
  8
PATTERN_FILL
  6
CONTINUOUS
 62
     7
 10
-42.200000000000003
 20
183.53
 30
0.0
 11
-42.200000000000003
 21
181.55000000000001
 31
0.0
  0
LINE
  5
A3
  8
PATTERN_FILL
  6
CONTINUOUS
 62
     7
 10
-57.799999999999997
 20
179.53
 30
0.0
 11
-42.200000000000003
 21
179.53
 31
0.0
  0
LINE
  5
A4
  8
PATTERN_FILL
  6
CONTINUOUS
 62
     7
 10
-57.799999999999997
 20
177.55000000000001
 30
0.0
 11
-42.200000000000003
 21
177.55000000000001
 31
0.0
  0
LINE
  5
A5
  8
PATTERN_FILL
  6
CONTINUOUS
 62
     7
 10
-57.799999999999997
 20
179.53
 30
0.0
 11
-57.799999999999997
 21
177.55000000000001
 31
0.0
  0
LINE
  5
A6
  8
PATTERN_FILL
  6
CONTINUOUS
 62
     7
 10
-42.200000000000003
 20
179.53
 30
0.0
 11
-42.200000000000003
 21
177.55000000000001
 31
0.0
  0
LINE
  5
A7
  8
PATTERN_FILL
  6
CONTINUOUS
 62
     7
 10
-57.799999999999997
 20
175.53
 30
0.0
 11
-42.200000000000003
 21
175.53
 31
0.0
  0
LINE
  5
A8
  8
PATTERN_FILL
  6
CONTINUOUS
 62
     7
 10
-57.799999999999997
 20
173.55000000000001
 30
0.0
 11
-42.200000000000003
 21
173.55000000000001
 31
0.0
  0
LINE
  5
A9
  8
PATTERN_FILL
  6
CONTINUOUS
 62
     7
 10
-57.799999999999997
 20
175.53
 30
0.0
 11
-57.799999999999997
 21
173.55000000000001
 31
0.0
  0
LINE
  5
AA
  8
PATTERN_FILL
  6
CONTINUOUS
 62
     7
 10
-42.200000000000003
 20
175.53
 30
0.0
 11
-42.200000000000003
 21
173.55000000000001
 31
0.0
  0
LINE
  5
AB
  8
PATTERN_FILL
  6
CONTINUOUS
 62
     7
 10
-57.799999999999997
 20
171.53
 30
0.0
 11
-42.200000000000003
 21
171.53
 31
0.0
  0
LINE
  5
AC
  8
PATTERN_FILL
  6
CONTINUOUS
 62
     7
 10
-57.799999999999997
 20
169.55000000000001
 30
0.0
 11
-42.200000000000003
 21
169.55000000000001
 31
0.0
  0
LINE
  5
AD
  8
PATTERN_FILL
  6
CONTINUOUS
 62
     7
 10
-57.799999999999997
 20
171.53
 30
0.0
 11
-57.799999999999997
 21
169.55000000000001
 31
0.0
  0
LINE
  5
AE
  8
PATTERN_FILL
  6
CONTINUOUS
 62
     7
 10
-42.200000000000003
 20
171.53
 30
0.0
 11
-42.200000000000003
 21
169.55000000000001
 31
0.0
  0
LINE
  5
AF
  8
PATTERN_FILL
  6
CONTINUOUS
 62
     7
 10
-57.799999999999997
 20
167.53
 30
0.0
 11
-42.200000000000003
 21
167.53
 31
0.0
  0
LINE
  5
B0
  8
PATTERN_FILL
  6
CONTINUOUS
 62
     7
 10
-57.799999999999997
 20
165.55000000000001
 30
0.0
 11
-42.200000000000003
 21
165.55000000000001
 31
0.0
  0
LINE
  5
B1
  8
PATTERN_FILL
  6
CONTINUOUS
 62
     7
 10
-57.799999999999997
 20
167.53
 30
0.0
 11
-57.799999999999997
 21
165.55000000000001
 31
0.0
  0
LINE
  5
B2
  8
PATTERN_FILL
  6
CONTINUOUS
 62
     7
 10
-42.200000000000003
 20
167.53
 30
0.0
 11
-42.200000000000003
 21
165.55000000000001
 31
0.0
  0
LINE
  5
B3
  8
PATTERN_FILL
  6
CONTINUOUS
 62
     7
 10
-57.799999999999997
 20
163.53
 30
0.0
 11
-42.200000000000003
 21
163.53
 31
0.0
  0
LINE
  5
B4
  8
PATTERN_FILL
  6
CONTINUOUS
 62
     7
 10
-57.799999999999997
 20
161.55000000000001
 30
0.0
 11
-42.200000000000003
 21
161.55000000000001
 31
0.0
  0
LINE
  5
B5
  8
PATTERN_FILL
  6
CONTINUOUS
 62
     7
 10
-57.799999999999997
 20
163.53
 30
0.0
 11
-57.799999999999997
 21
161.55000000000001
 31
0.0
  0
LINE
  5
B6
  8
PATTERN_FILL
  6
CONTINUOUS
 62
     7
 10
-42.200000000000003
 20
163.53
 30
0.0
 11
-42.200000000000003
 21
161.55000000000001
 31
0.0
  0
LINE
  5
B7
  8
PATTERN_FILL
  6
CONTINUOUS
 62
     7
 10
-57.799999999999997
 20
159.53
 30
0.0
 11
-42.200000000000003
 21
159.53
 31
0.0
  0
LINE
  5
B8
  8
PATTERN_FILL
  6
CONTINUOUS
 62
     7
 10
-57.799999999999997
 20
157.55000000000001
 30
0.0
 11
-42.200000000000003
 21
157.55000000000001
 31
0.0
  0
LINE
  5
B9
  8
PATTERN_FILL
  6
CONTINUOUS
 62
     7
 10
-57.799999999999997
 20
159.53
 30
0.0
 11
-57.799999999999997
 21
157.55000000000001
 31
0.0
  0
LINE
  5
BA
  8
PATTERN_FILL
  6
CONTINUOUS
 62
     7
 10
-42.200000000000003
 20
159.53
 30
0.0
 11
-42.200000000000003
 21
157.55000000000001
 31
0.0
  0
LINE
  5
BB
  8
PATTERN_FILL
  6
CONTINUOUS
 62
     7
 10
-57.799999999999997
 20
155.53
 30
0.0
 11
-42.200000000000003
 21
155.53
 31
0.0
  0
LINE
  5
BC
  8
PATTERN_FILL
  6
CONTINUOUS
 62
     7
 10
-57.799999999999997
 20
153.55000000000001
 30
0.0
 11
-42.200000000000003
 21
153.55000000000001
 31
0.0
  0
LINE
  5
BD
  8
PATTERN_FILL
  6
CONTINUOUS
 62
     7
 10
-57.799999999999997
 20
155.53
 30
0.0
 11
-57.799999999999997
 21
153.55000000000001
 31
0.0
  0
LINE
  5
BE
  8
PATTERN_FILL
  6
CONTINUOUS
 62
     7
 10
-42.200000000000003
 20
155.53
 30
0.0
 11
-42.200000000000003
 21
153.55000000000001
 31
0.0
  0
LINE
  5
BF
  8
PATTERN_FILL
  6
CONTINUOUS
 62
     7
 10
-57.799999999999997
 20
151.53
 30
0.0
 11
-42.200000000000003
 21
151.53
 31
0.0
  0
LINE
  5
C0
  8
PATTERN_FILL
  6
CONTINUOUS
 62
     7
 10
-57.799999999999997
 20
149.55000000000001
 30
0.0
 11
-42.200000000000003
 21
149.55000000000001
 31
0.0
  0
LINE
  5
C1
  8
PATTERN_FILL
  6
CONTINUOUS
 62
     7
 10
-57.799999999999997
 20
151.53
 30
0.0
 11
-57.799999999999997
 21
149.55000000000001
 31
0.0
  0
LINE
  5
C2
  8
PATTERN_FILL
  6
CONTINUOUS
 62
     7
 10
-42.200000000000003
 20
151.53
 30
0.0
 11
-42.200000000000003
 21
149.55000000000001
 31
0.0
  0
LINE
  5
C3
  8
PATTERN_FILL
  6
CONTINUOUS
 62
     7
 10
-57.799999999999997
 20
147.53
 30
0.0
 11
-42.200000000000003
 21
147.53
 31
0.0
  0
LINE
  5
C4
  8
PATTERN_FILL
  6
CONTINUOUS
 62
     7
 10
-57.799999999999997
 20
145.55000000000001
 30
0.0
 11
-42.200000000000003
 21
145.55000000000001
 31
0.0
  0
LINE
  5
C5
  8
PATTERN_FILL
  6
CONTINUOUS
 62
     7
 10
-57.799999999999997
 20
147.53
 30
0.0
 11
-57.799999999999997
 21
145.55000000000001
 31
0.0
  0
LINE
  5
C6
  8
PATTERN_FILL
  6
CONTINUOUS
 62
     7
 10
-42.200000000000003
 20
147.53
 30
0.0
 11
-42.200000000000003
 21
145.55000000000001
 31
0.0
  0
LINE
  5
C7
  8
PATTERN_FILL
  6
CONTINUOUS
 62
     7
 10
-57.799999999999997
 20
143.53
 30
0.0
 11
-42.200000000000003
 21
143.53
 31
0.0
  0
LINE
  5
C8
  8
PATTERN_FILL
  6
CONTINUOUS
 62
     7
 10
-57.799999999999997
 20
141.55000000000001
 30
0.0
 11
-42.200000000000003
 21
141.55000000000001
 31
0.0
  0
LINE
  5
C9
  8
PATTERN_FILL
  6
CONTINUOUS
 62
     7
 10
-57.799999999999997
 20
143.53
 30
0.0
 11
-57.799999999999997
 21
141.55000000000001
 31
0.0
  0
LINE
  5
CA
  8
PATTERN_FILL
  6
CONTINUOUS
 62
     7
 10
-42.200000000000003
 20
143.53
 30
0.0
 11
-42.200000000000003
 21
141.55000000000001
 31
0.0
  0
LINE
  5
CB
  8
PATTERN_FILL
  6
CONTINUOUS
 62
     7
 10
-57.799999999999997
 20
124.0
 30
0.0
 11
-42.200000000000003
 21
124.0
 31
0.0
  0
LINE
  5
CC
  8
PATTERN_FILL
  6
CONTINUOUS
 62
     7
 10
-57.799999999999997
 20
122.02
 30
0.0
 11
-42.200000000000003
 21
122.02
 31
0.0
  0
LINE
  5
CD
  8
PATTERN_FILL
  6
CONTINUOUS
 62
     7
 10
-57.799999999999997
 20
124.0
 30
0.0
 11
-57.799999999999997
 21
122.02
 31
0.0
  0
LINE
  5
CE
  8
PATTERN_FILL
  6
CONTINUOUS
 62
     7
 10
-42.200000000000003
 20
124.0
 30
0.0
 11
-42.200000000000003
 21
122.02
 31
0.0
  0
LINE
  5
CF
  8
PATTERN_FILL
  6
CONTINUOUS
 62
     7
 10
-57.799999999999997
 20
120.0
 30
0.0
 11
-42.200000000000003
 21
120.0
 31
0.0
  0
LINE
  5
D0
  8
PATTERN_FILL
  6
CONTINUOUS
 62
     7
 10
-57.799999999999997
 20
118.02
 30
0.0
 11
-42.200000000000003
 21
118.02
 31
0.0
  0
LINE
  5
D1
  8
PATTERN_FILL
  6
CONTINUOUS
 62
     7
 10
-57.799999999999997
 20
120.0
 30
0.0
 11
-57.799999999999997
 21
118.02
 31
0.0
  0
LINE
  5
D2
  8
PATTERN_FILL
  6
CONTINUOUS
 62
     7
 10
-42.200000000000003
 20
120.0
 30
0.0
 11
-42.200000000000003
 21
118.02
 31
0.0
  0
LINE
  5
D3
  8
PATTERN_FILL
  6
CONTINUOUS
 62
     7
 10
-57.799999999999997
 20
116.0
 30
0.0
 11
-42.200000000000003
 21
116.0
 31
0.0
  0
LINE
  5
D4
  8
PATTERN_FILL
  6
CONTINUOUS
 62
     7
 10
-57.799999999999997
 20
114.02
 30
0.0
 11
-42.200000000000003
 21
114.02
 31
0.0
  0
LINE
  5
D5
  8
PATTERN_FILL
  6
CONTINUOUS
 62
     7
 10
-57.799999999999997
 20
116.0
 30
0.0
 11
-57.799999999999997
 21
114.02
 31
0.0
  0
LINE
  5
D6
  8
PATTERN_FILL
  6
CONTINUOUS
 62
     7
 10
-42.200000000000003
 20
116.0
 30
0.0
 11
-42.200000000000003
 21
114.02
 31
0.0
  0
LINE
  5
D7
  8
PATTERN_FILL
  6
CONTINUOUS
 62
     7
 10
-57.799999999999997
 20
112.0
 30
0.0
 11
-42.200000000000003
 21
112.0
 31
0.0
  0
LINE
  5
D8
  8
PATTERN_FILL
  6
CONTINUOUS
 62
     7
 10
-57.799999999999997
 20
110.02
 30
0.0
 11
-42.200000000000003
 21
110.02
 31
0.0
  0
LINE
  5
D9
  8
PATTERN_FILL
  6
CONTINUOUS
 62
     7
 10
-57.799999999999997
 20
112.0
 30
0.0
 11
-57.799999999999997
 21
110.02
 31
0.0
  0
LINE
  5
DA
  8
PATTERN_FILL
  6
CONTINUOUS
 62
     7
 10
-42.200000000000003
 20
112.0
 30
0.0
 11
-42.200000000000003
 21
110.02
 31
0.0
  0
LINE
  5
DB
  8
PATTERN_FILL
  6
CONTINUOUS
 62
     7
 10
-57.799999999999997
 20
108.0
 30
0.0
 11
-42.200000000000003
 21
108.0
 31
0.0
  0
LINE
  5
DC
  8
PATTERN_FILL
  6
CONTINUOUS
 62
     7
 10
-57.799999999999997
 20
106.02
 30
0.0
 11
-42.200000000000003
 21
106.02
 31
0.0
  0
LINE
  5
DD
  8
PATTERN_FILL
  6
CONTINUOUS
 62
     7
 10
-57.799999999999997
 20
108.0
 30
0.0
 11
-57.799999999999997
 21
106.02
 31
0.0
  0
LINE
  5
DE
  8
PATTERN_FILL
  6
CONTINUOUS
 62
     7
 10
-42.200000000000003
 20
108.0
 30
0.0
 11
-42.200000000000003
 21
106.02
 31
0.0
  0
LINE
  5
DF
  8
PATTERN_FILL
  6
CONTINUOUS
 62
     7
 10
-57.799999999999997
 20
104.0
 30
0.0
 11
-42.200000000000003
 21
104.0
 31
0.0
  0
LINE
  5
E0
  8
PATTERN_FILL
  6
CONTINUOUS
 62
     7
 10
-57.799999999999997
 20
102.02
 30
0.0
 11
-42.200000000000003
 21
102.02
 31
0.0
  0
LINE
  5
E1
  8
PATTERN_FILL
  6
CONTINUOUS
 62
     7
 10
-57.799999999999997
 20
104.0
 30
0.0
 11
-57.799999999999997
 21
102.02
 31
0.0
  0
LINE
  5
E2
  8
PATTERN_FILL
  6
CONTINUOUS
 62
     7
 10
-42.200000000000003
 20
104.0
 30
0.0
 11
-42.200000000000003
 21
102.02
 31
0.0
  0
LINE
  5
E3
  8
PATTERN_FILL
  6
CONTINUOUS
 62
     7
 10
-57.799999999999997
 20
100.0
 30
0.0
 11
-42.200000000000003
 21
100.0
 31
0.0
  0
LINE
  5
E4
  8
PATTERN_FILL
  6
CONTINUOUS
 62
     7
 10
-57.799999999999997
 20
98.019999999999996
 30
0.0
 11
-42.200000000000003
 21
98.019999999999996
 31
0.0
  0
LINE
  5
E5
  8
PATTERN_FILL
  6
CONTINUOUS
 62
     7
 10
-57.799999999999997
 20
100.0
 30
0.0
 11
-57.799999999999997
 21
98.019999999999996
 31
0.0
  0
LINE
  5
E6
  8
PATTERN_FILL
  6
CONTINUOUS
 62
     7
 10
-42.200000000000003
 20
100.0
 30
0.0
 11
-42.200000000000003
 21
98.019999999999996
 31
0.0
  0
LINE
  5
E7
  8
PATTERN_FILL
  6
CONTINUOUS
 62
     7
 10
-57.799999999999997
 20
96.0
 30
0.0
 11
-42.200000000000003
 21
96.0
 31
0.0
  0
LINE
  5
E8
  8
PATTERN_FILL
  6
CONTINUOUS
 62
     7
 10
-57.799999999999997
 20
94.019999999999996
 30
0.0
 11
-42.200000000000003
 21
94.019999999999996
 31
0.0
  0
LINE
  5
E9
  8
PATTERN_FILL
  6
CONTINUOUS
 62
     7
 10
-57.799999999999997
 20
96.0
 30
0.0
 11
-57.799999999999997
 21
94.019999999999996
 31
0.0
  0
LINE
  5
EA
  8
PATTERN_FILL
  6
CONTINUOUS
 62
     7
 10
-42.200000000000003
 20
96.0
 30
0.0
 11
-42.200000000000003
 21
94.019999999999996
 31
0.0
  0
LINE
  5
EB
  8
PATTERN_FILL
  6
CONTINUOUS
 62
     7
 10
-57.799999999999997
 20
92.0
 30
0.0
 11
-42.200000000000003
 21
92.0
 31
0.0
  0
LINE
  5
EC
  8
PATTERN_FILL
  6
CONTINUOUS
 62
     7
 10
-57.799999999999997
 20
90.019999999999982
 30
0.0
 11
-42.200000000000003
 21
90.019999999999982
 31
0.0
  0
LINE
  5
ED
  8
PATTERN_FILL
  6
CONTINUOUS
 62
     7
 10
-57.799999999999997
 20
92.0
 30
0.0
 11
-57.799999999999997
 21
90.019999999999982
 31
0.0
  0
LINE
  5
EE
  8
PATTERN_FILL
  6
CONTINUOUS
 62
     7
 10
-42.200000000000003
 20
92.0
 30
0.0
 11
-42.200000000000003
 21
90.019999999999982
 31
0.0
  0
LINE
  5
EF
  8
PATTERN_FILL
  6
CONTINUOUS
 62
     7
 10
-57.799999999999997
 20
88.0
 30
0.0
 11
-42.200000000000003
 21
88.0
 31
0.0
  0
LINE
  5
F0
  8
PATTERN_FILL
  6
CONTINUOUS
 62
     7
 10
-57.799999999999997
 20
86.019999999999982
 30
0.0
 11
-42.200000000000003
 21
86.019999999999982
 31
0.0
  0
LINE
  5
F1
  8
PATTERN_FILL
  6
CONTINUOUS
 62
     7
 10
-57.799999999999997
 20
88.0
 30
0.0
 11
-57.799999999999997
 21
86.019999999999982
 31
0.0
  0
LINE
  5
F2
  8
PATTERN_FILL
  6
CONTINUOUS
 62
     7
 10
-42.200000000000003
 20
88.0
 30
0.0
 11
-42.200000000000003
 21
86.019999999999982
 31
0.0
  0
LINE
  5
F3
  8
PATTERN_FILL
  6
CONTINUOUS
 62
     7
 10
-57.799999999999997
 20
84.0
 30
0.0
 11
-42.200000000000003
 21
84.0
 31
0.0
  0
LINE
  5
F4
  8
PATTERN_FILL
  6
CONTINUOUS
 62
     7
 10
-57.799999999999997
 20
82.019999999999982
 30
0.0
 11
-42.200000000000003
 21
82.019999999999982
 31
0.0
  0
LINE
  5
F5
  8
PATTERN_FILL
  6
CONTINUOUS
 62
     7
 10
-57.799999999999997
 20
84.0
 30
0.0
 11
-57.799999999999997
 21
82.019999999999982
 31
0.0
  0
LINE
  5
F6
  8
PATTERN_FILL
  6
CONTINUOUS
 62
     7
 10
-42.200000000000003
 20
84.0
 30
0.0
 11
-42.200000000000003
 21
82.019999999999982
 31
0.0
  0
LINE
  5
F7
  8
PATTERN_FILL
  6
CONTINUOUS
 62
     7
 10
-57.799999999999997
 20
80.0
 30
0.0
 11
-42.200000000000003
 21
80.0
 31
0.0
  0
LINE
  5
F8
  8
PATTERN_FILL
  6
CONTINUOUS
 62
     7
 10
-57.799999999999997
 20
78.019999999999982
 30
0.0
 11
-42.200000000000003
 21
78.019999999999982
 31
0.0
  0
LINE
  5
F9
  8
PATTERN_FILL
  6
CONTINUOUS
 62
     7
 10
-57.799999999999997
 20
80.0
 30
0.0
 11
-57.799999999999997
 21
78.019999999999982
 31
0.0
  0
LINE
  5
FA
  8
PATTERN_FILL
  6
CONTINUOUS
 62
     7
 10
-42.200000000000003
 20
80.0
 30
0.0
 11
-42.200000000000003
 21
78.019999999999982
 31
0.0
  0
LINE
  5
FB
  8
PATTERN_FILL
  6
CONTINUOUS
 62
     7
 10
-57.799999999999997
 20
76.0
 30
0.0
 11
-42.200000000000003
 21
76.0
 31
0.0
  0
LINE
  5
FC
  8
PATTERN_FILL
  6
CONTINUOUS
 62
     7
 10
-57.799999999999997
 20
74.019999999999982
 30
0.0
 11
-42.200000000000003
 21
74.019999999999982
 31
0.0
  0
LINE
  5
FD
  8
PATTERN_FILL
  6
CONTINUOUS
 62
     7
 10
-57.799999999999997
 20
76.0
 30
0.0
 11
-57.799999999999997
 21
74.019999999999982
 31
0.0
  0
LINE
  5
FE
  8
PATTERN_FILL
  6
CONTINUOUS
 62
     7
 10
-42.200000000000003
 20
76.0
 30
0.0
 11
-42.200000000000003
 21
74.019999999999982
 31
0.0
  0
LINE
  5
FF
  8
PATTERN_FILL
  6
CONTINUOUS
 62
     7
 10
-57.799999999999997
 20
72.0
 30
0.0
 11
-42.200000000000003
 21
72.0
 31
0.0
  0
LINE
  5
100
  8
PATTERN_FILL
  6
CONTINUOUS
 62
     7
 10
-57.799999999999997
 20
70.019999999999996
 30
0.0
 11
-42.200000000000003
 21
70.019999999999996
 31
0.0
  0
LINE
  5
101
  8
PATTERN_FILL
  6
CONTINUOUS
 62
     7
 10
-57.799999999999997
 20
72.0
 30
0.0
 11
-57.799999999999997
 21
70.019999999999996
 31
0.0
  0
LINE
  5
102
  8
PATTERN_FILL
  6
CONTINUOUS
 62
     7
 10
-42.200000000000003
 20
72.0
 30
0.0
 11
-42.200000000000003
 21
70.019999999999996
 31
0.0
  0
LINE
  5
103
  8
PATTERN_FILL
  6
CONTINUOUS
 62
     7
 10
-57.799999999999997
 20
68.0
 30
0.0
 11
-42.200000000000003
 21
68.0
 31
0.0
  0
LINE
  5
104
  8
PATTERN_FILL
  6
CONTINUOUS
 62
     7
 10
-57.799999999999997
 20
66.019999999999996
 30
0.0
 11
-42.200000000000003
 21
66.019999999999996
 31
0.0
  0
LINE
  5
105
  8
PATTERN_FILL
  6
CONTINUOUS
 62
     7
 10
-57.799999999999997
 20
68.0
 30
0.0
 11
-57.799999999999997
 21
66.019999999999996
 31
0.0
  0
LINE
  5
106
  8
PATTERN_FILL
  6
CONTINUOUS
 62
     7
 10
-42.200000000000003
 20
68.0
 30
0.0
 11
-42.200000000000003
 21
66.019999999999996
 31
0.0
  0
LINE
  5
107
  8
PATTERN_FILL
  6
CONTINUOUS
 62
     7
 10
-57.799999999999997
 20
64.0
 30
0.0
 11
-42.200000000000003
 21
64.0
 31
0.0
  0
LINE
  5
108
  8
PATTERN_FILL
  6
CONTINUOUS
 62
     7
 10
-57.799999999999997
 20
62.020000000000003
 30
0.0
 11
-42.200000000000003
 21
62.020000000000003
 31
0.0
  0
LINE
  5
109
  8
PATTERN_FILL
  6
CONTINUOUS
 62
     7
 10
-57.799999999999997
 20
64.0
 30
0.0
 11
-57.799999999999997
 21
62.020000000000003
 31
0.0
  0
LINE
  5
10A
  8
PATTERN_FILL
  6
CONTINUOUS
 62
     7
 10
-42.200000000000003
 20
64.0
 30
0.0
 11
-42.200000000000003
 21
62.020000000000003
 31
0.0
  0
LINE
  5
10B
  8
PATTERN_FILL
  6
CONTINUOUS
 62
     7
 10
-57.799999999999997
 20
60.0
 30
0.0
 11
-42.200000000000003
 21
60.0
 31
0.0
  0
LINE
  5
10C
  8
PATTERN_FILL
  6
CONTINUOUS
 62
     7
 10
-57.799999999999997
 20
58.020000000000003
 30
0.0
 11
-42.200000000000003
 21
58.020000000000003
 31
0.0
  0
LINE
  5
10D
  8
PATTERN_FILL
  6
CONTINUOUS
 62
     7
 10
-57.799999999999997
 20
60.0
 30
0.0
 11
-57.799999999999997
 21
58.020000000000003
 31
0.0
  0
LINE
  5
10E
  8
PATTERN_FILL
  6
CONTINUOUS
 62
     7
 10
-42.200000000000003
 20
60.0
 30
0.0
 11
-42.200000000000003
 21
58.020000000000003
 31
0.0
  0
LINE
  5
10F
  8
PATTERN_FILL
  6
CONTINUOUS
 62
     7
 10
-57.799999999999997
 20
56.0
 30
0.0
 11
-42.200000000000003
 21
56.0
 31
0.0
  0
LINE
  5
110
  8
PATTERN_FILL
  6
CONTINUOUS
 62
     7
 10
-57.799999999999997
 20
54.02000000000001
 30
0.0
 11
-42.200000000000003
 21
54.02000000000001
 31
0.0
  0
LINE
  5
111
  8
PATTERN_FILL
  6
CONTINUOUS
 62
     7
 10
-57.799999999999997
 20
56.0
 30
0.0
 11
-57.799999999999997
 21
54.02000000000001
 31
0.0
  0
LINE
  5
112
  8
PATTERN_FILL
  6
CONTINUOUS
 62
     7
 10
-42.200000000000003
 20
56.0
 30
0.0
 11
-42.200000000000003
 21
54.02000000000001
 31
0.0
  0
LINE
  5
113
  8
PATTERN_FILL
  6
CONTINUOUS
 62
     7
 10
-57.799999999999997
 20
52.0
 30
0.0
 11
-42.200000000000003
 21
52.0
 31
0.0
  0
LINE
  5
114
  8
PATTERN_FILL
  6
CONTINUOUS
 62
     7
 10
-57.799999999999997
 20
50.020000000000003
 30
0.0
 11
-42.200000000000003
 21
50.020000000000003
 31
0.0
  0
LINE
  5
115
  8
PATTERN_FILL
  6
CONTINUOUS
 62
     7
 10
-57.799999999999997
 20
52.0
 30
0.0
 11
-57.799999999999997
 21
50.020000000000003
 31
0.0
  0
LINE
  5
116
  8
PATTERN_FILL
  6
CONTINUOUS
 62
     7
 10
-42.200000000000003
 20
52.0
 30
0.0
 11
-42.200000000000003
 21
50.020000000000003
 31
0.0
  0
LINE
  5
117
  8
PATTERN_FILL
  6
CONTINUOUS
 62
     7
 10
-57.799999999999997
 20
48.0
 30
0.0
 11
-42.200000000000003
 21
48.0
 31
0.0
  0
LINE
  5
118
  8
PATTERN_FILL
  6
CONTINUOUS
 62
     7
 10
-57.799999999999997
 20
46.020000000000003
 30
0.0
 11
-42.200000000000003
 21
46.020000000000003
 31
0.0
  0
LINE
  5
119
  8
PATTERN_FILL
  6
CONTINUOUS
 62
     7
 10
-57.799999999999997
 20
48.0
 30
0.0
 11
-57.799999999999997
 21
46.020000000000003
 31
0.0
  0
LINE
  5
11A
  8
PATTERN_FILL
  6
CONTINUOUS
 62
     7
 10
-42.200000000000003
 20
48.0
 30
0.0
 11
-42.200000000000003
 21
46.020000000000003
 31
0.0
  0
LINE
  5
11B
  8
PATTERN_FILL
  6
CONTINUOUS
 62
     7
 10
-57.799999999999997
 20
44.0
 30
0.0
 11
-42.200000000000003
 21
44.0
 31
0.0
  0
LINE
  5
11C
  8
PATTERN_FILL
  6
CONTINUOUS
 62
     7
 10
-57.799999999999997
 20
42.020000000000003
 30
0.0
 11
-42.200000000000003
 21
42.020000000000003
 31
0.0
  0
LINE
  5
11D
  8
PATTERN_FILL
  6
CONTINUOUS
 62
     7
 10
-57.799999999999997
 20
44.0
 30
0.0
 11
-57.799999999999997
 21
42.020000000000003
 31
0.0
  0
LINE
  5
11E
  8
PATTERN_FILL
  6
CONTINUOUS
 62
     7
 10
-42.200000000000003
 20
44.0
 30
0.0
 11
-42.200000000000003
 21
42.020000000000003
 31
0.0
  0
LINE
  5
11F
  8
PATTERN_FILL
  6
CONTINUOUS
 62
     7
 10
-57.799999999999997
 20
40.0
 30
0.0
 11
-42.200000000000003
 21
40.0
 31
0.0
  0
LINE
  5
120
  8
PATTERN_FILL
  6
CONTINUOUS
 62
     7
 10
-57.799999999999997
 20
38.02000000000001
 30
0.0
 11
-42.200000000000003
 21
38.02000000000001
 31
0.0
  0
LINE
  5
121
  8
PATTERN_FILL
  6
CONTINUOUS
 62
     7
 10
-57.799999999999997
 20
40.0
 30
0.0
 11
-57.799999999999997
 21
38.02000000000001
 31
0.0
  0
LINE
  5
122
  8
PATTERN_FILL
  6
CONTINUOUS
 62
     7
 10
-42.200000000000003
 20
40.0
 30
0.0
 11
-42.200000000000003
 21
38.02000000000001
 31
0.0
  0
LINE
  5
123
  8
PATTERN_FILL
  6
CONTINUOUS
 62
     7
 10
-57.799999999999997
 20
36.0
 30
0.0
 11
-42.200000000000003
 21
36.0
 31
0.0
  0
LINE
  5
124
  8
PATTERN_FILL
  6
CONTINUOUS
 62
     7
 10
-57.799999999999997
 20
34.02000000000001
 30
0.0
 11
-42.200000000000003
 21
34.02000000000001
 31
0.0
  0
LINE
  5
125
  8
PATTERN_FILL
  6
CONTINUOUS
 62
     7
 10
-57.799999999999997
 20
36.0
 30
0.0
 11
-57.799999999999997
 21
34.02000000000001
 31
0.0
  0
LINE
  5
126
  8
PATTERN_FILL
  6
CONTINUOUS
 62
     7
 10
-42.200000000000003
 20
36.0
 30
0.0
 11
-42.200000000000003
 21
34.02000000000001
 31
0.0
  0
LINE
  5
127
  8
PATTERN_FILL
  6
CONTINUOUS
 62
     7
 10
-57.799999999999997
 20
32.0
 30
0.0
 11
-42.200000000000003
 21
32.0
 31
0.0
  0
LINE
  5
128
  8
PATTERN_FILL
  6
CONTINUOUS
 62
     7
 10
-57.799999999999997
 20
30.02
 30
0.0
 11
-42.200000000000003
 21
30.02
 31
0.0
  0
LINE
  5
129
  8
PATTERN_FILL
  6
CONTINUOUS
 62
     7
 10
-57.799999999999997
 20
32.0
 30
0.0
 11
-57.799999999999997
 21
30.02
 31
0.0
  0
LINE
  5
12A
  8
PATTERN_FILL
  6
CONTINUOUS
 62
     7
 10
-42.200000000000003
 20
32.0
 30
0.0
 11
-42.200000000000003
 21
30.02
 31
0.0
  0
LINE
  5
12B
  8
PATTERN_FILL
  6
CONTINUOUS
 62
     7
 10
-57.799999999999997
 20
28.0
 30
0.0
 11
-42.200000000000003
 21
28.0
 31
0.0
  0
LINE
  5
12C
  8
PATTERN_FILL
  6
CONTINUOUS
 62
     7
 10
-57.799999999999997
 20
26.02
 30
0.0
 11
-42.200000000000003
 21
26.02
 31
0.0
  0
LINE
  5
12D
  8
PATTERN_FILL
  6
CONTINUOUS
 62
     7
 10
-57.799999999999997
 20
28.0
 30
0.0
 11
-57.799999999999997
 21
26.02
 31
0.0
  0
LINE
  5
12E
  8
PATTERN_FILL
  6
CONTINUOUS
 62
     7
 10
-42.200000000000003
 20
28.0
 30
0.0
 11
-42.200000000000003
 21
26.02
 31
0.0
  0
LINE
  5
12F
  8
PATTERN_FILL
  6
CONTINUOUS
 62
     7
 10
-57.799999999999997
 20
24.0
 30
0.0
 11
-42.200000000000003
 21
24.0
 31
0.0
  0
LINE
  5
130
  8
PATTERN_FILL
  6
CONTINUOUS
 62
     7
 10
-57.799999999999997
 20
22.019999999999989
 30
0.0
 11
-42.200000000000003
 21
22.019999999999989
 31
0.0
  0
LINE
  5
131
  8
PATTERN_FILL
  6
CONTINUOUS
 62
     7
 10
-57.799999999999997
 20
24.0
 30
0.0
 11
-57.799999999999997
 21
22.019999999999989
 31
0.0
  0
LINE
  5
132
  8
PATTERN_FILL
  6
CONTINUOUS
 62
     7
 10
-42.200000000000003
 20
24.0
 30
0.0
 11
-42.200000000000003
 21
22.019999999999989
 31
0.0
  0
LINE
  5
133
  8
PATTERN_FILL
  6
CONTINUOUS
 62
     7
 10
-57.799999999999997
 20
20.0
 30
0.0
 11
-42.200000000000003
 21
20.0
 31
0.0
  0
LINE
  5
134
  8
PATTERN_FILL
  6
CONTINUOUS
 62
     7
 10
-57.799999999999997
 20
18.019999999999978
 30
0.0
 11
-42.200000000000003
 21
18.019999999999978
 31
0.0
  0
LINE
  5
135
  8
PATTERN_FILL
  6
CONTINUOUS
 62
     7
 10
-57.799999999999997
 20
20.0
 30
0.0
 11
-57.799999999999997
 21
18.019999999999978
 31
0.0
  0
LINE
  5
136
  8
PATTERN_FILL
  6
CONTINUOUS
 62
     7
 10
-42.200000000000003
 20
20.0
 30
0.0
 11
-42.200000000000003
 21
18.019999999999978
 31
0.0
  0
LINE
  5
137
  8
PATTERN_FILL
  6
CONTINUOUS
 62
     7
 10
-57.799999999999997
 20
16.0
 30
0.0
 11
-42.200000000000003
 21
16.0
 31
0.0
  0
LINE
  5
138
  8
PATTERN_FILL
  6
CONTINUOUS
 62
     7
 10
-57.799999999999997
 20
14.01999999999998
 30
0.0
 11
-42.200000000000003
 21
14.01999999999998
 31
0.0
  0
LINE
  5
139
  8
PATTERN_FILL
  6
CONTINUOUS
 62
     7
 10
-57.799999999999997
 20
16.0
 30
0.0
 11
-57.799999999999997
 21
14.01999999999998
 31
0.0
  0
LINE
  5
13A
  8
PATTERN_FILL
  6
CONTINUOUS
 62
     7
 10
-42.200000000000003
 20
16.0
 30
0.0
 11
-42.200000000000003
 21
14.01999999999998
 31
0.0
  0
LINE
  5
13B
  8
PATTERN_FILL
  6
CONTINUOUS
 62
     7
 10
-57.799999999999997
 20
12.0
 30
0.0
 11
-42.200000000000003
 21
12.0
 31
0.0
  0
LINE
  5
13C
  8
PATTERN_FILL
  6
CONTINUOUS
 62
     7
 10
-57.799999999999997
 20
10.01999999999998
 30
0.0
 11
-42.200000000000003
 21
10.01999999999998
 31
0.0
  0
LINE
  5
13D
  8
PATTERN_FILL
  6
CONTINUOUS
 62
     7
 10
-57.799999999999997
 20
12.0
 30
0.0
 11
-57.799999999999997
 21
10.01999999999998
 31
0.0
  0
LINE
  5
13E
  8
PATTERN_FILL
  6
CONTINUOUS
 62
     7
 10
-42.200000000000003
 20
12.0
 30
0.0
 11
-42.200000000000003
 21
10.01999999999998
 31
0.0
  0
LINE
  5
13F
  8
PATTERN_FILL
  6
CONTINUOUS
 62
     7
 10
-57.799999999999997
 20
8.0
 30
0.0
 11
-42.200000000000003
 21
8.0
 31
0.0
  0
LINE
  5
140
  8
PATTERN_FILL
  6
CONTINUOUS
 62
     7
 10
-57.799999999999997
 20
6.0199999999999809
 30
0.0
 11
-42.200000000000003
 21
6.0199999999999809
 31
0.0
  0
LINE
  5
141
  8
PATTERN_FILL
  6
CONTINUOUS
 62
     7
 10
-57.799999999999997
 20
8.0
 30
0.0
 11
-57.799999999999997
 21
6.0199999999999809
 31
0.0
  0
LINE
  5
142
  8
PATTERN_FILL
  6
CONTINUOUS
 62
     7
 10
-42.200000000000003
 20
8.0
 30
0.0
 11
-42.200000000000003
 21
6.0199999999999809
 31
0.0
  0
LINE
  5
143
  8
PATTERN_FILL
  6
CONTINUOUS
 62
     7
 10
-57.799999999999997
 20
4.0
 30
0.0
 11
-42.200000000000003
 21
4.0
 31
0.0
  0
LINE
  5
144
  8
PATTERN_FILL
  6
CONTINUOUS
 62
     7
 10
-57.799999999999997
 20
2.0199999999999809
 30
0.0
 11
-42.200000000000003
 21
2.0199999999999809
 31
0.0
  0
LINE
  5
145
  8
PATTERN_FILL
  6
CONTINUOUS
 62
     7
 10
-57.799999999999997
 20
4.0
 30
0.0
 11
-57.799999999999997
 21
2.0199999999999809
 31
0.0
  0
LINE
  5
146
  8
PATTERN_FILL
  6
CONTINUOUS
 62
     7
 10
-42.200000000000003
 20
4.0
 30
0.0
 11
-42.200000000000003
 21
2.0199999999999809
 31
0.0
  0
LINE
  5
147
  8
PATTERN_FILL
  6
CONTINUOUS
 62
     7
 10
-57.799999999999997
 20
0.0
 30
0.0
 11
-42.200000000000003
 21
0.0
 31
0.0
  0
LINE
  5
148
  8
PATTERN_FILL
  6
CONTINUOUS
 62
     7
 10
-57.799999999999997
 20
-1.980000000000018
 30
0.0
 11
-42.200000000000003
 21
-1.980000000000018
 31
0.0
  0
LINE
  5
149
  8
PATTERN_FILL
  6
CONTINUOUS
 62
     7
 10
-57.799999999999997
 20
0.0
 30
0.0
 11
-57.799999999999997
 21
-1.980000000000018
 31
0.0
  0
LINE
  5
14A
  8
PATTERN_FILL
  6
CONTINUOUS
 62
     7
 10
-42.200000000000003
 20
0.0
 30
0.0
 11
-42.200000000000003
 21
-1.980000000000018
 31
0.0
  0
LINE
  5
14B
  8
PATTERN_FILL
  6
CONTINUOUS
 62
     7
 10
-57.799999999999997
 20
-16.879999999999988
 30
0.0
 11
-42.200000000000003
 21
-16.879999999999988
 31
0.0
  0
LINE
  5
14C
  8
PATTERN_FILL
  6
CONTINUOUS
 62
     7
 10
-57.799999999999997
 20
-18.86000000000001
 30
0.0
 11
-42.200000000000003
 21
-18.86000000000001
 31
0.0
  0
LINE
  5
14D
  8
PATTERN_FILL
  6
CONTINUOUS
 62
     7
 10
-57.799999999999997
 20
-16.879999999999988
 30
0.0
 11
-57.799999999999997
 21
-18.86000000000001
 31
0.0
  0
LINE
  5
14E
  8
PATTERN_FILL
  6
CONTINUOUS
 62
     7
 10
-42.200000000000003
 20
-16.879999999999988
 30
0.0
 11
-42.200000000000003
 21
-18.86000000000001
 31
0.0
  0
LINE
  5
14F
  8
PATTERN_FILL
  6
CONTINUOUS
 62
     7
 10
-57.799999999999997
 20
-20.879999999999999
 30
0.0
 11
-42.200000000000003
 21
-20.879999999999999
 31
0.0
  0
LINE
  5
150
  8
PATTERN_FILL
  6
CONTINUOUS
 62
     7
 10
-57.799999999999997
 20
-22.86000000000001
 30
0.0
 11
-42.200000000000003
 21
-22.86000000000001
 31
0.0
  0
LINE
  5
151
  8
PATTERN_FILL
  6
CONTINUOUS
 62
     7
 10
-57.799999999999997
 20
-20.879999999999999
 30
0.0
 11
-57.799999999999997
 21
-22.86000000000001
 31
0.0
  0
LINE
  5
152
  8
PATTERN_FILL
  6
CONTINUOUS
 62
     7
 10
-42.200000000000003
 20
-20.879999999999999
 30
0.0
 11
-42.200000000000003
 21
-22.86000000000001
 31
0.0
  0
LINE
  5
153
  8
PATTERN_FILL
  6
CONTINUOUS
 62
     7
 10
-57.799999999999997
 20
-24.879999999999988
 30
0.0
 11
-42.200000000000003
 21
-24.879999999999988
 31
0.0
  0
LINE
  5
154
  8
PATTERN_FILL
  6
CONTINUOUS
 62
     7
 10
-57.799999999999997
 20
-26.86000000000001
 30
0.0
 11
-42.200000000000003
 21
-26.86000000000001
 31
0.0
  0
LINE
  5
155
  8
PATTERN_FILL
  6
CONTINUOUS
 62
     7
 10
-57.799999999999997
 20
-24.879999999999988
 30
0.0
 11
-57.799999999999997
 21
-26.86000000000001
 31
0.0
  0
LINE
  5
156
  8
PATTERN_FILL
  6
CONTINUOUS
 62
     7
 10
-42.200000000000003
 20
-24.879999999999988
 30
0.0
 11
-42.200000000000003
 21
-26.86000000000001
 31
0.0
  0
LINE
  5
157
  8
PATTERN_FILL
  6
CONTINUOUS
 62
     7
 10
167.19999999999999
 20
124.0
 30
0.0
 11
182.80000000000001
 21
124.0
 31
0.0
  0
LINE
  5
158
  8
PATTERN_FILL
  6
CONTINUOUS
 62
     7
 10
167.19999999999999
 20
122.02
 30
0.0
 11
182.80000000000001
 21
122.02
 31
0.0
  0
LINE
  5
159
  8
PATTERN_FILL
  6
CONTINUOUS
 62
     7
 10
167.19999999999999
 20
124.0
 30
0.0
 11
167.19999999999999
 21
122.02
 31
0.0
  0
LINE
  5
15A
  8
PATTERN_FILL
  6
CONTINUOUS
 62
     7
 10
182.80000000000001
 20
124.0
 30
0.0
 11
182.80000000000001
 21
122.02
 31
0.0
  0
LINE
  5
15B
  8
PATTERN_FILL
  6
CONTINUOUS
 62
     7
 10
167.19999999999999
 20
120.0
 30
0.0
 11
182.80000000000001
 21
120.0
 31
0.0
  0
LINE
  5
15C
  8
PATTERN_FILL
  6
CONTINUOUS
 62
     7
 10
167.19999999999999
 20
118.02
 30
0.0
 11
182.80000000000001
 21
118.02
 31
0.0
  0
LINE
  5
15D
  8
PATTERN_FILL
  6
CONTINUOUS
 62
     7
 10
167.19999999999999
 20
120.0
 30
0.0
 11
167.19999999999999
 21
118.02
 31
0.0
  0
LINE
  5
15E
  8
PATTERN_FILL
  6
CONTINUOUS
 62
     7
 10
182.80000000000001
 20
120.0
 30
0.0
 11
182.80000000000001
 21
118.02
 31
0.0
  0
LINE
  5
15F
  8
PATTERN_FILL
  6
CONTINUOUS
 62
     7
 10
167.19999999999999
 20
116.0
 30
0.0
 11
182.80000000000001
 21
116.0
 31
0.0
  0
LINE
  5
160
  8
PATTERN_FILL
  6
CONTINUOUS
 62
     7
 10
167.19999999999999
 20
114.02
 30
0.0
 11
182.80000000000001
 21
114.02
 31
0.0
  0
LINE
  5
161
  8
PATTERN_FILL
  6
CONTINUOUS
 62
     7
 10
167.19999999999999
 20
116.0
 30
0.0
 11
167.19999999999999
 21
114.02
 31
0.0
  0
LINE
  5
162
  8
PATTERN_FILL
  6
CONTINUOUS
 62
     7
 10
182.80000000000001
 20
116.0
 30
0.0
 11
182.80000000000001
 21
114.02
 31
0.0
  0
LINE
  5
163
  8
PATTERN_FILL
  6
CONTINUOUS
 62
     7
 10
167.19999999999999
 20
112.0
 30
0.0
 11
182.80000000000001
 21
112.0
 31
0.0
  0
LINE
  5
164
  8
PATTERN_FILL
  6
CONTINUOUS
 62
     7
 10
167.19999999999999
 20
110.02
 30
0.0
 11
182.80000000000001
 21
110.02
 31
0.0
  0
LINE
  5
165
  8
PATTERN_FILL
  6
CONTINUOUS
 62
     7
 10
167.19999999999999
 20
112.0
 30
0.0
 11
167.19999999999999
 21
110.02
 31
0.0
  0
LINE
  5
166
  8
PATTERN_FILL
  6
CONTINUOUS
 62
     7
 10
182.80000000000001
 20
112.0
 30
0.0
 11
182.80000000000001
 21
110.02
 31
0.0
  0
LINE
  5
167
  8
PATTERN_FILL
  6
CONTINUOUS
 62
     7
 10
167.19999999999999
 20
108.0
 30
0.0
 11
182.80000000000001
 21
108.0
 31
0.0
  0
LINE
  5
168
  8
PATTERN_FILL
  6
CONTINUOUS
 62
     7
 10
167.19999999999999
 20
106.02
 30
0.0
 11
182.80000000000001
 21
106.02
 31
0.0
  0
LINE
  5
169
  8
PATTERN_FILL
  6
CONTINUOUS
 62
     7
 10
167.19999999999999
 20
108.0
 30
0.0
 11
167.19999999999999
 21
106.02
 31
0.0
  0
LINE
  5
16A
  8
PATTERN_FILL
  6
CONTINUOUS
 62
     7
 10
182.80000000000001
 20
108.0
 30
0.0
 11
182.80000000000001
 21
106.02
 31
0.0
  0
LINE
  5
16B
  8
PATTERN_FILL
  6
CONTINUOUS
 62
     7
 10
167.19999999999999
 20
104.0
 30
0.0
 11
182.80000000000001
 21
104.0
 31
0.0
  0
LINE
  5
16C
  8
PATTERN_FILL
  6
CONTINUOUS
 62
     7
 10
167.19999999999999
 20
102.02
 30
0.0
 11
182.80000000000001
 21
102.02
 31
0.0
  0
LINE
  5
16D
  8
PATTERN_FILL
  6
CONTINUOUS
 62
     7
 10
167.19999999999999
 20
104.0
 30
0.0
 11
167.19999999999999
 21
102.02
 31
0.0
  0
LINE
  5
16E
  8
PATTERN_FILL
  6
CONTINUOUS
 62
     7
 10
182.80000000000001
 20
104.0
 30
0.0
 11
182.80000000000001
 21
102.02
 31
0.0
  0
LINE
  5
16F
  8
PATTERN_FILL
  6
CONTINUOUS
 62
     7
 10
167.19999999999999
 20
100.0
 30
0.0
 11
182.80000000000001
 21
100.0
 31
0.0
  0
LINE
  5
170
  8
PATTERN_FILL
  6
CONTINUOUS
 62
     7
 10
167.19999999999999
 20
98.019999999999996
 30
0.0
 11
182.80000000000001
 21
98.019999999999996
 31
0.0
  0
LINE
  5
171
  8
PATTERN_FILL
  6
CONTINUOUS
 62
     7
 10
167.19999999999999
 20
100.0
 30
0.0
 11
167.19999999999999
 21
98.019999999999996
 31
0.0
  0
LINE
  5
172
  8
PATTERN_FILL
  6
CONTINUOUS
 62
     7
 10
182.80000000000001
 20
100.0
 30
0.0
 11
182.80000000000001
 21
98.019999999999996
 31
0.0
  0
LINE
  5
173
  8
PATTERN_FILL
  6
CONTINUOUS
 62
     7
 10
167.19999999999999
 20
96.0
 30
0.0
 11
182.80000000000001
 21
96.0
 31
0.0
  0
LINE
  5
174
  8
PATTERN_FILL
  6
CONTINUOUS
 62
     7
 10
167.19999999999999
 20
94.019999999999996
 30
0.0
 11
182.80000000000001
 21
94.019999999999996
 31
0.0
  0
LINE
  5
175
  8
PATTERN_FILL
  6
CONTINUOUS
 62
     7
 10
167.19999999999999
 20
96.0
 30
0.0
 11
167.19999999999999
 21
94.019999999999996
 31
0.0
  0
LINE
  5
176
  8
PATTERN_FILL
  6
CONTINUOUS
 62
     7
 10
182.80000000000001
 20
96.0
 30
0.0
 11
182.80000000000001
 21
94.019999999999996
 31
0.0
  0
LINE
  5
177
  8
PATTERN_FILL
  6
CONTINUOUS
 62
     7
 10
167.19999999999999
 20
92.0
 30
0.0
 11
182.80000000000001
 21
92.0
 31
0.0
  0
LINE
  5
178
  8
PATTERN_FILL
  6
CONTINUOUS
 62
     7
 10
167.19999999999999
 20
90.019999999999982
 30
0.0
 11
182.80000000000001
 21
90.019999999999982
 31
0.0
  0
LINE
  5
179
  8
PATTERN_FILL
  6
CONTINUOUS
 62
     7
 10
167.19999999999999
 20
92.0
 30
0.0
 11
167.19999999999999
 21
90.019999999999982
 31
0.0
  0
LINE
  5
17A
  8
PATTERN_FILL
  6
CONTINUOUS
 62
     7
 10
182.80000000000001
 20
92.0
 30
0.0
 11
182.80000000000001
 21
90.019999999999982
 31
0.0
  0
LINE
  5
17B
  8
PATTERN_FILL
  6
CONTINUOUS
 62
     7
 10
167.19999999999999
 20
88.0
 30
0.0
 11
182.80000000000001
 21
88.0
 31
0.0
  0
LINE
  5
17C
  8
PATTERN_FILL
  6
CONTINUOUS
 62
     7
 10
167.19999999999999
 20
86.019999999999982
 30
0.0
 11
182.80000000000001
 21
86.019999999999982
 31
0.0
  0
LINE
  5
17D
  8
PATTERN_FILL
  6
CONTINUOUS
 62
     7
 10
167.19999999999999
 20
88.0
 30
0.0
 11
167.19999999999999
 21
86.019999999999982
 31
0.0
  0
LINE
  5
17E
  8
PATTERN_FILL
  6
CONTINUOUS
 62
     7
 10
182.80000000000001
 20
88.0
 30
0.0
 11
182.80000000000001
 21
86.019999999999982
 31
0.0
  0
LINE
  5
17F
  8
PATTERN_FILL
  6
CONTINUOUS
 62
     7
 10
167.19999999999999
 20
84.0
 30
0.0
 11
182.80000000000001
 21
84.0
 31
0.0
  0
LINE
  5
180
  8
PATTERN_FILL
  6
CONTINUOUS
 62
     7
 10
167.19999999999999
 20
82.019999999999982
 30
0.0
 11
182.80000000000001
 21
82.019999999999982
 31
0.0
  0
LINE
  5
181
  8
PATTERN_FILL
  6
CONTINUOUS
 62
     7
 10
167.19999999999999
 20
84.0
 30
0.0
 11
167.19999999999999
 21
82.019999999999982
 31
0.0
  0
LINE
  5
182
  8
PATTERN_FILL
  6
CONTINUOUS
 62
     7
 10
182.80000000000001
 20
84.0
 30
0.0
 11
182.80000000000001
 21
82.019999999999982
 31
0.0
  0
LINE
  5
183
  8
PATTERN_FILL
  6
CONTINUOUS
 62
     7
 10
167.19999999999999
 20
80.0
 30
0.0
 11
182.80000000000001
 21
80.0
 31
0.0
  0
LINE
  5
184
  8
PATTERN_FILL
  6
CONTINUOUS
 62
     7
 10
167.19999999999999
 20
78.019999999999982
 30
0.0
 11
182.80000000000001
 21
78.019999999999982
 31
0.0
  0
LINE
  5
185
  8
PATTERN_FILL
  6
CONTINUOUS
 62
     7
 10
167.19999999999999
 20
80.0
 30
0.0
 11
167.19999999999999
 21
78.019999999999982
 31
0.0
  0
LINE
  5
186
  8
PATTERN_FILL
  6
CONTINUOUS
 62
     7
 10
182.80000000000001
 20
80.0
 30
0.0
 11
182.80000000000001
 21
78.019999999999982
 31
0.0
  0
LINE
  5
187
  8
PATTERN_FILL
  6
CONTINUOUS
 62
     7
 10
167.19999999999999
 20
76.0
 30
0.0
 11
182.80000000000001
 21
76.0
 31
0.0
  0
LINE
  5
188
  8
PATTERN_FILL
  6
CONTINUOUS
 62
     7
 10
167.19999999999999
 20
74.019999999999982
 30
0.0
 11
182.80000000000001
 21
74.019999999999982
 31
0.0
  0
LINE
  5
189
  8
PATTERN_FILL
  6
CONTINUOUS
 62
     7
 10
167.19999999999999
 20
76.0
 30
0.0
 11
167.19999999999999
 21
74.019999999999982
 31
0.0
  0
LINE
  5
18A
  8
PATTERN_FILL
  6
CONTINUOUS
 62
     7
 10
182.80000000000001
 20
76.0
 30
0.0
 11
182.80000000000001
 21
74.019999999999982
 31
0.0
  0
LINE
  5
18B
  8
PATTERN_FILL
  6
CONTINUOUS
 62
     7
 10
167.19999999999999
 20
72.0
 30
0.0
 11
182.80000000000001
 21
72.0
 31
0.0
  0
LINE
  5
18C
  8
PATTERN_FILL
  6
CONTINUOUS
 62
     7
 10
167.19999999999999
 20
70.019999999999996
 30
0.0
 11
182.80000000000001
 21
70.019999999999996
 31
0.0
  0
LINE
  5
18D
  8
PATTERN_FILL
  6
CONTINUOUS
 62
     7
 10
167.19999999999999
 20
72.0
 30
0.0
 11
167.19999999999999
 21
70.019999999999996
 31
0.0
  0
LINE
  5
18E
  8
PATTERN_FILL
  6
CONTINUOUS
 62
     7
 10
182.80000000000001
 20
72.0
 30
0.0
 11
182.80000000000001
 21
70.019999999999996
 31
0.0
  0
LINE
  5
18F
  8
PATTERN_FILL
  6
CONTINUOUS
 62
     7
 10
167.19999999999999
 20
68.0
 30
0.0
 11
182.80000000000001
 21
68.0
 31
0.0
  0
LINE
  5
190
  8
PATTERN_FILL
  6
CONTINUOUS
 62
     7
 10
167.19999999999999
 20
66.019999999999996
 30
0.0
 11
182.80000000000001
 21
66.019999999999996
 31
0.0
  0
LINE
  5
191
  8
PATTERN_FILL
  6
CONTINUOUS
 62
     7
 10
167.19999999999999
 20
68.0
 30
0.0
 11
167.19999999999999
 21
66.019999999999996
 31
0.0
  0
LINE
  5
192
  8
PATTERN_FILL
  6
CONTINUOUS
 62
     7
 10
182.80000000000001
 20
68.0
 30
0.0
 11
182.80000000000001
 21
66.019999999999996
 31
0.0
  0
LINE
  5
193
  8
PATTERN_FILL
  6
CONTINUOUS
 62
     7
 10
167.19999999999999
 20
64.0
 30
0.0
 11
182.80000000000001
 21
64.0
 31
0.0
  0
LINE
  5
194
  8
PATTERN_FILL
  6
CONTINUOUS
 62
     7
 10
167.19999999999999
 20
62.020000000000003
 30
0.0
 11
182.80000000000001
 21
62.020000000000003
 31
0.0
  0
LINE
  5
195
  8
PATTERN_FILL
  6
CONTINUOUS
 62
     7
 10
167.19999999999999
 20
64.0
 30
0.0
 11
167.19999999999999
 21
62.020000000000003
 31
0.0
  0
LINE
  5
196
  8
PATTERN_FILL
  6
CONTINUOUS
 62
     7
 10
182.80000000000001
 20
64.0
 30
0.0
 11
182.80000000000001
 21
62.020000000000003
 31
0.0
  0
LINE
  5
197
  8
PATTERN_FILL
  6
CONTINUOUS
 62
     7
 10
167.19999999999999
 20
60.0
 30
0.0
 11
182.80000000000001
 21
60.0
 31
0.0
  0
LINE
  5
198
  8
PATTERN_FILL
  6
CONTINUOUS
 62
     7
 10
167.19999999999999
 20
58.020000000000003
 30
0.0
 11
182.80000000000001
 21
58.020000000000003
 31
0.0
  0
LINE
  5
199
  8
PATTERN_FILL
  6
CONTINUOUS
 62
     7
 10
167.19999999999999
 20
60.0
 30
0.0
 11
167.19999999999999
 21
58.020000000000003
 31
0.0
  0
LINE
  5
19A
  8
PATTERN_FILL
  6
CONTINUOUS
 62
     7
 10
182.80000000000001
 20
60.0
 30
0.0
 11
182.80000000000001
 21
58.020000000000003
 31
0.0
  0
LINE
  5
19B
  8
PATTERN_FILL
  6
CONTINUOUS
 62
     7
 10
167.19999999999999
 20
56.0
 30
0.0
 11
182.80000000000001
 21
56.0
 31
0.0
  0
LINE
  5
19C
  8
PATTERN_FILL
  6
CONTINUOUS
 62
     7
 10
167.19999999999999
 20
54.02000000000001
 30
0.0
 11
182.80000000000001
 21
54.02000000000001
 31
0.0
  0
LINE
  5
19D
  8
PATTERN_FILL
  6
CONTINUOUS
 62
     7
 10
167.19999999999999
 20
56.0
 30
0.0
 11
167.19999999999999
 21
54.02000000000001
 31
0.0
  0
LINE
  5
19E
  8
PATTERN_FILL
  6
CONTINUOUS
 62
     7
 10
182.80000000000001
 20
56.0
 30
0.0
 11
182.80000000000001
 21
54.02000000000001
 31
0.0
  0
LINE
  5
19F
  8
PATTERN_FILL
  6
CONTINUOUS
 62
     7
 10
167.19999999999999
 20
52.0
 30
0.0
 11
182.80000000000001
 21
52.0
 31
0.0
  0
LINE
  5
1A0
  8
PATTERN_FILL
  6
CONTINUOUS
 62
     7
 10
167.19999999999999
 20
50.020000000000003
 30
0.0
 11
182.80000000000001
 21
50.020000000000003
 31
0.0
  0
LINE
  5
1A1
  8
PATTERN_FILL
  6
CONTINUOUS
 62
     7
 10
167.19999999999999
 20
52.0
 30
0.0
 11
167.19999999999999
 21
50.020000000000003
 31
0.0
  0
LINE
  5
1A2
  8
PATTERN_FILL
  6
CONTINUOUS
 62
     7
 10
182.80000000000001
 20
52.0
 30
0.0
 11
182.80000000000001
 21
50.020000000000003
 31
0.0
  0
LINE
  5
1A3
  8
PATTERN_FILL
  6
CONTINUOUS
 62
     7
 10
167.19999999999999
 20
48.0
 30
0.0
 11
182.80000000000001
 21
48.0
 31
0.0
  0
LINE
  5
1A4
  8
PATTERN_FILL
  6
CONTINUOUS
 62
     7
 10
167.19999999999999
 20
46.020000000000003
 30
0.0
 11
182.80000000000001
 21
46.020000000000003
 31
0.0
  0
LINE
  5
1A5
  8
PATTERN_FILL
  6
CONTINUOUS
 62
     7
 10
167.19999999999999
 20
48.0
 30
0.0
 11
167.19999999999999
 21
46.020000000000003
 31
0.0
  0
LINE
  5
1A6
  8
PATTERN_FILL
  6
CONTINUOUS
 62
     7
 10
182.80000000000001
 20
48.0
 30
0.0
 11
182.80000000000001
 21
46.020000000000003
 31
0.0
  0
LINE
  5
1A7
  8
PATTERN_FILL
  6
CONTINUOUS
 62
     7
 10
167.19999999999999
 20
44.0
 30
0.0
 11
182.80000000000001
 21
44.0
 31
0.0
  0
LINE
  5
1A8
  8
PATTERN_FILL
  6
CONTINUOUS
 62
     7
 10
167.19999999999999
 20
42.020000000000003
 30
0.0
 11
182.80000000000001
 21
42.020000000000003
 31
0.0
  0
LINE
  5
1A9
  8
PATTERN_FILL
  6
CONTINUOUS
 62
     7
 10
167.19999999999999
 20
44.0
 30
0.0
 11
167.19999999999999
 21
42.020000000000003
 31
0.0
  0
LINE
  5
1AA
  8
PATTERN_FILL
  6
CONTINUOUS
 62
     7
 10
182.80000000000001
 20
44.0
 30
0.0
 11
182.80000000000001
 21
42.020000000000003
 31
0.0
  0
LINE
  5
1AB
  8
PATTERN_FILL
  6
CONTINUOUS
 62
     7
 10
167.19999999999999
 20
40.0
 30
0.0
 11
182.80000000000001
 21
40.0
 31
0.0
  0
LINE
  5
1AC
  8
PATTERN_FILL
  6
CONTINUOUS
 62
     7
 10
167.19999999999999
 20
38.02000000000001
 30
0.0
 11
182.80000000000001
 21
38.02000000000001
 31
0.0
  0
LINE
  5
1AD
  8
PATTERN_FILL
  6
CONTINUOUS
 62
     7
 10
167.19999999999999
 20
40.0
 30
0.0
 11
167.19999999999999
 21
38.02000000000001
 31
0.0
  0
LINE
  5
1AE
  8
PATTERN_FILL
  6
CONTINUOUS
 62
     7
 10
182.80000000000001
 20
40.0
 30
0.0
 11
182.80000000000001
 21
38.02000000000001
 31
0.0
  0
LINE
  5
1AF
  8
PATTERN_FILL
  6
CONTINUOUS
 62
     7
 10
167.19999999999999
 20
36.0
 30
0.0
 11
182.80000000000001
 21
36.0
 31
0.0
  0
LINE
  5
1B0
  8
PATTERN_FILL
  6
CONTINUOUS
 62
     7
 10
167.19999999999999
 20
34.02000000000001
 30
0.0
 11
182.80000000000001
 21
34.02000000000001
 31
0.0
  0
LINE
  5
1B1
  8
PATTERN_FILL
  6
CONTINUOUS
 62
     7
 10
167.19999999999999
 20
36.0
 30
0.0
 11
167.19999999999999
 21
34.02000000000001
 31
0.0
  0
LINE
  5
1B2
  8
PATTERN_FILL
  6
CONTINUOUS
 62
     7
 10
182.80000000000001
 20
36.0
 30
0.0
 11
182.80000000000001
 21
34.02000000000001
 31
0.0
  0
LINE
  5
1B3
  8
PATTERN_FILL
  6
CONTINUOUS
 62
     7
 10
167.19999999999999
 20
32.0
 30
0.0
 11
182.80000000000001
 21
32.0
 31
0.0
  0
LINE
  5
1B4
  8
PATTERN_FILL
  6
CONTINUOUS
 62
     7
 10
167.19999999999999
 20
30.02
 30
0.0
 11
182.80000000000001
 21
30.02
 31
0.0
  0
LINE
  5
1B5
  8
PATTERN_FILL
  6
CONTINUOUS
 62
     7
 10
167.19999999999999
 20
32.0
 30
0.0
 11
167.19999999999999
 21
30.02
 31
0.0
  0
LINE
  5
1B6
  8
PATTERN_FILL
  6
CONTINUOUS
 62
     7
 10
182.80000000000001
 20
32.0
 30
0.0
 11
182.80000000000001
 21
30.02
 31
0.0
  0
LINE
  5
1B7
  8
PATTERN_FILL
  6
CONTINUOUS
 62
     7
 10
167.19999999999999
 20
28.0
 30
0.0
 11
182.80000000000001
 21
28.0
 31
0.0
  0
LINE
  5
1B8
  8
PATTERN_FILL
  6
CONTINUOUS
 62
     7
 10
167.19999999999999
 20
26.02
 30
0.0
 11
182.80000000000001
 21
26.02
 31
0.0
  0
LINE
  5
1B9
  8
PATTERN_FILL
  6
CONTINUOUS
 62
     7
 10
167.19999999999999
 20
28.0
 30
0.0
 11
167.19999999999999
 21
26.02
 31
0.0
  0
LINE
  5
1BA
  8
PATTERN_FILL
  6
CONTINUOUS
 62
     7
 10
182.80000000000001
 20
28.0
 30
0.0
 11
182.80000000000001
 21
26.02
 31
0.0
  0
LINE
  5
1BB
  8
PATTERN_FILL
  6
CONTINUOUS
 62
     7
 10
167.19999999999999
 20
24.0
 30
0.0
 11
182.80000000000001
 21
24.0
 31
0.0
  0
LINE
  5
1BC
  8
PATTERN_FILL
  6
CONTINUOUS
 62
     7
 10
167.19999999999999
 20
22.019999999999989
 30
0.0
 11
182.80000000000001
 21
22.019999999999989
 31
0.0
  0
LINE
  5
1BD
  8
PATTERN_FILL
  6
CONTINUOUS
 62
     7
 10
167.19999999999999
 20
24.0
 30
0.0
 11
167.19999999999999
 21
22.019999999999989
 31
0.0
  0
LINE
  5
1BE
  8
PATTERN_FILL
  6
CONTINUOUS
 62
     7
 10
182.80000000000001
 20
24.0
 30
0.0
 11
182.80000000000001
 21
22.019999999999989
 31
0.0
  0
LINE
  5
1BF
  8
PATTERN_FILL
  6
CONTINUOUS
 62
     7
 10
167.19999999999999
 20
20.0
 30
0.0
 11
182.80000000000001
 21
20.0
 31
0.0
  0
LINE
  5
1C0
  8
PATTERN_FILL
  6
CONTINUOUS
 62
     7
 10
167.19999999999999
 20
18.019999999999978
 30
0.0
 11
182.80000000000001
 21
18.019999999999978
 31
0.0
  0
LINE
  5
1C1
  8
PATTERN_FILL
  6
CONTINUOUS
 62
     7
 10
167.19999999999999
 20
20.0
 30
0.0
 11
167.19999999999999
 21
18.019999999999978
 31
0.0
  0
LINE
  5
1C2
  8
PATTERN_FILL
  6
CONTINUOUS
 62
     7
 10
182.80000000000001
 20
20.0
 30
0.0
 11
182.80000000000001
 21
18.019999999999978
 31
0.0
  0
LINE
  5
1C3
  8
PATTERN_FILL
  6
CONTINUOUS
 62
     7
 10
167.19999999999999
 20
16.0
 30
0.0
 11
182.80000000000001
 21
16.0
 31
0.0
  0
LINE
  5
1C4
  8
PATTERN_FILL
  6
CONTINUOUS
 62
     7
 10
167.19999999999999
 20
14.01999999999998
 30
0.0
 11
182.80000000000001
 21
14.01999999999998
 31
0.0
  0
LINE
  5
1C5
  8
PATTERN_FILL
  6
CONTINUOUS
 62
     7
 10
167.19999999999999
 20
16.0
 30
0.0
 11
167.19999999999999
 21
14.01999999999998
 31
0.0
  0
LINE
  5
1C6
  8
PATTERN_FILL
  6
CONTINUOUS
 62
     7
 10
182.80000000000001
 20
16.0
 30
0.0
 11
182.80000000000001
 21
14.01999999999998
 31
0.0
  0
LINE
  5
1C7
  8
PATTERN_FILL
  6
CONTINUOUS
 62
     7
 10
167.19999999999999
 20
12.0
 30
0.0
 11
182.80000000000001
 21
12.0
 31
0.0
  0
LINE
  5
1C8
  8
PATTERN_FILL
  6
CONTINUOUS
 62
     7
 10
167.19999999999999
 20
10.01999999999998
 30
0.0
 11
182.80000000000001
 21
10.01999999999998
 31
0.0
  0
LINE
  5
1C9
  8
PATTERN_FILL
  6
CONTINUOUS
 62
     7
 10
167.19999999999999
 20
12.0
 30
0.0
 11
167.19999999999999
 21
10.01999999999998
 31
0.0
  0
LINE
  5
1CA
  8
PATTERN_FILL
  6
CONTINUOUS
 62
     7
 10
182.80000000000001
 20
12.0
 30
0.0
 11
182.80000000000001
 21
10.01999999999998
 31
0.0
  0
LINE
  5
1CB
  8
PATTERN_FILL
  6
CONTINUOUS
 62
     7
 10
167.19999999999999
 20
8.0
 30
0.0
 11
182.80000000000001
 21
8.0
 31
0.0
  0
LINE
  5
1CC
  8
PATTERN_FILL
  6
CONTINUOUS
 62
     7
 10
167.19999999999999
 20
6.0199999999999809
 30
0.0
 11
182.80000000000001
 21
6.0199999999999809
 31
0.0
  0
LINE
  5
1CD
  8
PATTERN_FILL
  6
CONTINUOUS
 62
     7
 10
167.19999999999999
 20
8.0
 30
0.0
 11
167.19999999999999
 21
6.0199999999999809
 31
0.0
  0
LINE
  5
1CE
  8
PATTERN_FILL
  6
CONTINUOUS
 62
     7
 10
182.80000000000001
 20
8.0
 30
0.0
 11
182.80000000000001
 21
6.0199999999999809
 31
0.0
  0
LINE
  5
1CF
  8
PATTERN_FILL
  6
CONTINUOUS
 62
     7
 10
167.19999999999999
 20
4.0
 30
0.0
 11
182.80000000000001
 21
4.0
 31
0.0
  0
LINE
  5
1D0
  8
PATTERN_FILL
  6
CONTINUOUS
 62
     7
 10
167.19999999999999
 20
2.0199999999999809
 30
0.0
 11
182.80000000000001
 21
2.0199999999999809
 31
0.0
  0
LINE
  5
1D1
  8
PATTERN_FILL
  6
CONTINUOUS
 62
     7
 10
167.19999999999999
 20
4.0
 30
0.0
 11
167.19999999999999
 21
2.0199999999999809
 31
0.0
  0
LINE
  5
1D2
  8
PATTERN_FILL
  6
CONTINUOUS
 62
     7
 10
182.80000000000001
 20
4.0
 30
0.0
 11
182.80000000000001
 21
2.0199999999999809
 31
0.0
  0
LINE
  5
1D3
  8
PATTERN_FILL
  6
CONTINUOUS
 62
     7
 10
167.19999999999999
 20
0.0
 30
0.0
 11
182.80000000000001
 21
0.0
 31
0.0
  0
LINE
  5
1D4
  8
PATTERN_FILL
  6
CONTINUOUS
 62
     7
 10
167.19999999999999
 20
-1.980000000000018
 30
0.0
 11
182.80000000000001
 21
-1.980000000000018
 31
0.0
  0
LINE
  5
1D5
  8
PATTERN_FILL
  6
CONTINUOUS
 62
     7
 10
167.19999999999999
 20
0.0
 30
0.0
 11
167.19999999999999
 21
-1.980000000000018
 31
0.0
  0
LINE
  5
1D6
  8
PATTERN_FILL
  6
CONTINUOUS
 62
     7
 10
182.80000000000001
 20
0.0
 30
0.0
 11
182.80000000000001
 21
-1.980000000000018
 31
0.0
  0
LINE
  5
1D7
  8
PATTERN_FILL
  6
CONTINUOUS
 62
     7
 10
167.19999999999999
 20
-16.879999999999988
 30
0.0
 11
182.80000000000001
 21
-16.879999999999988
 31
0.0
  0
LINE
  5
1D8
  8
PATTERN_FILL
  6
CONTINUOUS
 62
     7
 10
167.19999999999999
 20
-18.86000000000001
 30
0.0
 11
182.80000000000001
 21
-18.86000000000001
 31
0.0
  0
LINE
  5
1D9
  8
PATTERN_FILL
  6
CONTINUOUS
 62
     7
 10
167.19999999999999
 20
-16.879999999999988
 30
0.0
 11
167.19999999999999
 21
-18.86000000000001
 31
0.0
  0
LINE
  5
1DA
  8
PATTERN_FILL
  6
CONTINUOUS
 62
     7
 10
182.80000000000001
 20
-16.879999999999988
 30
0.0
 11
182.80000000000001
 21
-18.86000000000001
 31
0.0
  0
LINE
  5
1DB
  8
PATTERN_FILL
  6
CONTINUOUS
 62
     7
 10
167.19999999999999
 20
-20.879999999999999
 30
0.0
 11
182.80000000000001
 21
-20.879999999999999
 31
0.0
  0
LINE
  5
1DC
  8
PATTERN_FILL
  6
CONTINUOUS
 62
     7
 10
167.19999999999999
 20
-22.86000000000001
 30
0.0
 11
182.80000000000001
 21
-22.86000000000001
 31
0.0
  0
LINE
  5
1DD
  8
PATTERN_FILL
  6
CONTINUOUS
 62
     7
 10
167.19999999999999
 20
-20.879999999999999
 30
0.0
 11
167.19999999999999
 21
-22.86000000000001
 31
0.0
  0
LINE
  5
1DE
  8
PATTERN_FILL
  6
CONTINUOUS
 62
     7
 10
182.80000000000001
 20
-20.879999999999999
 30
0.0
 11
182.80000000000001
 21
-22.86000000000001
 31
0.0
  0
LINE
  5
1DF
  8
PATTERN_FILL
  6
CONTINUOUS
 62
     7
 10
167.19999999999999
 20
-24.879999999999988
 30
0.0
 11
182.80000000000001
 21
-24.879999999999988
 31
0.0
  0
LINE
  5
1E0
  8
PATTERN_FILL
  6
CONTINUOUS
 62
     7
 10
167.19999999999999
 20
-26.86000000000001
 30
0.0
 11
182.80000000000001
 21
-26.86000000000001
 31
0.0
  0
LINE
  5
1E1
  8
PATTERN_FILL
  6
CONTINUOUS
 62
     7
 10
167.19999999999999
 20
-24.879999999999988
 30
0.0
 11
167.19999999999999
 21
-26.86000000000001
 31
0.0
  0
LINE
  5
1E2
  8
PATTERN_FILL
  6
CONTINUOUS
 62
     7
 10
182.80000000000001
 20
-24.879999999999988
 30
0.0
 11
182.80000000000001
 21
-26.86000000000001
 31
0.0
  0
LINE
  5
1E3
  8
PATTERN_FILL
  6
CONTINUOUS
 62
     7
 10
27.249999999999989
 20
267.52999999999997
 30
0.0
 11
31.314690321601152
 21
267.52999999999997
 31
0.0
  0
LINE
  5
1E4
  8
PATTERN_FILL
  6
CONTINUOUS
 62
     7
 10
27.249999999999989
 20
265.55000000000001
 30
0.0
 11
31.314690321601152
 21
265.55000000000001
 31
0.0
  0
LINE
  5
1E5
  8
PATTERN_FILL
  6
CONTINUOUS
 62
     7
 10
31.314690321601152
 20
267.52999999999997
 30
0.0
 11
31.314690321601152
 21
265.55000000000001
 31
0.0
  0
LINE
  5
1E6
  8
PATTERN_FILL
  6
CONTINUOUS
 62
     7
 10
27.249999999999989
 20
263.52999999999997
 30
0.0
 11
31.314690321601152
 21
263.52999999999997
 31
0.0
  0
LINE
  5
1E7
  8
PATTERN_FILL
  6
CONTINUOUS
 62
     7
 10
27.249999999999989
 20
261.55000000000001
 30
0.0
 11
31.314690321601152
 21
261.55000000000001
 31
0.0
  0
LINE
  5
1E8
  8
PATTERN_FILL
  6
CONTINUOUS
 62
     7
 10
31.314690321601152
 20
263.52999999999997
 30
0.0
 11
31.314690321601152
 21
261.55000000000001
 31
0.0
  0
LINE
  5
1E9
  8
PATTERN_FILL
  6
CONTINUOUS
 62
     7
 10
27.249999999999989
 20
259.52999999999997
 30
0.0
 11
31.314690321601152
 21
259.52999999999997
 31
0.0
  0
LINE
  5
1EA
  8
PATTERN_FILL
  6
CONTINUOUS
 62
     7
 10
27.249999999999989
 20
257.55000000000001
 30
0.0
 11
31.314690321601152
 21
257.55000000000001
 31
0.0
  0
LINE
  5
1EB
  8
PATTERN_FILL
  6
CONTINUOUS
 62
     7
 10
31.314690321601152
 20
259.52999999999997
 30
0.0
 11
31.314690321601152
 21
257.55000000000001
 31
0.0
  0
LINE
  5
1EC
  8
PATTERN_FILL
  6
CONTINUOUS
 62
     7
 10
27.249999999999989
 20
255.53
 30
0.0
 11
31.314690321601152
 21
255.53
 31
0.0
  0
LINE
  5
1ED
  8
PATTERN_FILL
  6
CONTINUOUS
 62
     7
 10
27.249999999999989
 20
253.55000000000001
 30
0.0
 11
31.314690321601152
 21
253.55000000000001
 31
0.0
  0
LINE
  5
1EE
  8
PATTERN_FILL
  6
CONTINUOUS
 62
     7
 10
31.314690321601152
 20
255.53
 30
0.0
 11
31.314690321601152
 21
253.55000000000001
 31
0.0
  0
LINE
  5
1EF
  8
PATTERN_FILL
  6
CONTINUOUS
 62
     7
 10
27.249999999999989
 20
251.53
 30
0.0
 11
31.314690321601152
 21
251.53
 31
0.0
  0
LINE
  5
1F0
  8
PATTERN_FILL
  6
CONTINUOUS
 62
     7
 10
27.249999999999989
 20
249.55000000000001
 30
0.0
 11
31.314690321601152
 21
249.55000000000001
 31
0.0
  0
LINE
  5
1F1
  8
PATTERN_FILL
  6
CONTINUOUS
 62
     7
 10
31.314690321601152
 20
251.53
 30
0.0
 11
31.314690321601152
 21
249.55000000000001
 31
0.0
  0
LINE
  5
1F2
  8
PATTERN_FILL
  6
CONTINUOUS
 62
     7
 10
27.249999999999989
 20
247.53
 30
0.0
 11
31.314690321601152
 21
247.53
 31
0.0
  0
LINE
  5
1F3
  8
PATTERN_FILL
  6
CONTINUOUS
 62
     7
 10
27.249999999999989
 20
245.55000000000001
 30
0.0
 11
31.314690321601152
 21
245.55000000000001
 31
0.0
  0
LINE
  5
1F4
  8
PATTERN_FILL
  6
CONTINUOUS
 62
     7
 10
31.314690321601152
 20
247.53
 30
0.0
 11
31.314690321601152
 21
245.55000000000001
 31
0.0
  0
LINE
  5
1F5
  8
PATTERN_FILL
  6
CONTINUOUS
 62
     7
 10
27.249999999999989
 20
243.53
 30
0.0
 11
31.314690321601152
 21
243.53
 31
0.0
  0
LINE
  5
1F6
  8
PATTERN_FILL
  6
CONTINUOUS
 62
     7
 10
27.249999999999989
 20
241.55000000000001
 30
0.0
 11
31.314690321601152
 21
241.55000000000001
 31
0.0
  0
LINE
  5
1F7
  8
PATTERN_FILL
  6
CONTINUOUS
 62
     7
 10
31.314690321601152
 20
243.53
 30
0.0
 11
31.314690321601152
 21
241.55000000000001
 31
0.0
  0
LINE
  5
1F8
  8
PATTERN_FILL
  6
CONTINUOUS
 62
     7
 10
27.249999999999989
 20
239.53
 30
0.0
 11
31.314690321601152
 21
239.53
 31
0.0
  0
LINE
  5
1F9
  8
PATTERN_FILL
  6
CONTINUOUS
 62
     7
 10
27.249999999999989
 20
237.55000000000001
 30
0.0
 11
31.314690321601152
 21
237.55000000000001
 31
0.0
  0
LINE
  5
1FA
  8
PATTERN_FILL
  6
CONTINUOUS
 62
     7
 10
31.314690321601152
 20
239.53
 30
0.0
 11
31.314690321601152
 21
237.55000000000001
 31
0.0
  0
LINE
  5
1FB
  8
PATTERN_FILL
  6
CONTINUOUS
 62
     7
 10
27.249999999999989
 20
235.53
 30
0.0
 11
31.314690321601152
 21
235.53
 31
0.0
  0
LINE
  5
1FC
  8
PATTERN_FILL
  6
CONTINUOUS
 62
     7
 10
27.249999999999989
 20
233.55000000000001
 30
0.0
 11
31.314690321601152
 21
233.55000000000001
 31
0.0
  0
LINE
  5
1FD
  8
PATTERN_FILL
  6
CONTINUOUS
 62
     7
 10
31.314690321601152
 20
235.53
 30
0.0
 11
31.314690321601152
 21
233.55000000000001
 31
0.0
  0
LINE
  5
1FE
  8
PATTERN_FILL
  6
CONTINUOUS
 62
     7
 10
27.249999999999989
 20
231.53
 30
0.0
 11
31.314690321601152
 21
231.53
 31
0.0
  0
LINE
  5
1FF
  8
PATTERN_FILL
  6
CONTINUOUS
 62
     7
 10
27.249999999999989
 20
229.55000000000001
 30
0.0
 11
31.314690321601152
 21
229.55000000000001
 31
0.0
  0
LINE
  5
200
  8
PATTERN_FILL
  6
CONTINUOUS
 62
     7
 10
31.314690321601152
 20
231.53
 30
0.0
 11
31.314690321601152
 21
229.55000000000001
 31
0.0
  0
LINE
  5
201
  8
PATTERN_FILL
  6
CONTINUOUS
 62
     7
 10
27.249999999999989
 20
227.53
 30
0.0
 11
31.314690321601152
 21
227.53
 31
0.0
  0
LINE
  5
202
  8
PATTERN_FILL
  6
CONTINUOUS
 62
     7
 10
27.249999999999989
 20
225.55000000000001
 30
0.0
 11
31.314690321601152
 21
225.55000000000001
 31
0.0
  0
LINE
  5
203
  8
PATTERN_FILL
  6
CONTINUOUS
 62
     7
 10
31.314690321601152
 20
227.53
 30
0.0
 11
31.314690321601152
 21
225.55000000000001
 31
0.0
  0
LINE
  5
204
  8
PATTERN_FILL
  6
CONTINUOUS
 62
     7
 10
27.249999999999989
 20
223.53
 30
0.0
 11
31.314690321601152
 21
223.53
 31
0.0
  0
LINE
  5
205
  8
PATTERN_FILL
  6
CONTINUOUS
 62
     7
 10
27.249999999999989
 20
221.55000000000001
 30
0.0
 11
31.314690321601152
 21
221.55000000000001
 31
0.0
  0
LINE
  5
206
  8
PATTERN_FILL
  6
CONTINUOUS
 62
     7
 10
31.314690321601152
 20
223.53
 30
0.0
 11
31.314690321601152
 21
221.55000000000001
 31
0.0
  0
LINE
  5
207
  8
PATTERN_FILL
  6
CONTINUOUS
 62
     7
 10
27.249999999999989
 20
219.53
 30
0.0
 11
31.314690321601152
 21
219.53
 31
0.0
  0
LINE
  5
208
  8
PATTERN_FILL
  6
CONTINUOUS
 62
     7
 10
27.249999999999989
 20
217.55000000000001
 30
0.0
 11
31.314690321601152
 21
217.55000000000001
 31
0.0
  0
LINE
  5
209
  8
PATTERN_FILL
  6
CONTINUOUS
 62
     7
 10
31.314690321601152
 20
219.53
 30
0.0
 11
31.314690321601152
 21
217.55000000000001
 31
0.0
  0
LINE
  5
20A
  8
PATTERN_FILL
  6
CONTINUOUS
 62
     7
 10
27.249999999999989
 20
215.53
 30
0.0
 11
31.314690321601152
 21
215.53
 31
0.0
  0
LINE
  5
20B
  8
PATTERN_FILL
  6
CONTINUOUS
 62
     7
 10
27.249999999999989
 20
213.55000000000001
 30
0.0
 11
31.314690321601152
 21
213.55000000000001
 31
0.0
  0
LINE
  5
20C
  8
PATTERN_FILL
  6
CONTINUOUS
 62
     7
 10
31.314690321601152
 20
215.53
 30
0.0
 11
31.314690321601152
 21
213.55000000000001
 31
0.0
  0
LINE
  5
20D
  8
PATTERN_FILL
  6
CONTINUOUS
 62
     7
 10
27.249999999999989
 20
211.53
 30
0.0
 11
31.314690321601152
 21
211.53
 31
0.0
  0
LINE
  5
20E
  8
PATTERN_FILL
  6
CONTINUOUS
 62
     7
 10
27.249999999999989
 20
209.55000000000001
 30
0.0
 11
31.314690321601152
 21
209.55000000000001
 31
0.0
  0
LINE
  5
20F
  8
PATTERN_FILL
  6
CONTINUOUS
 62
     7
 10
31.314690321601152
 20
211.53
 30
0.0
 11
31.314690321601152
 21
209.55000000000001
 31
0.0
  0
LINE
  5
210
  8
PATTERN_FILL
  6
CONTINUOUS
 62
     7
 10
27.249999999999989
 20
207.53
 30
0.0
 11
31.314690321601152
 21
207.53
 31
0.0
  0
LINE
  5
211
  8
PATTERN_FILL
  6
CONTINUOUS
 62
     7
 10
27.249999999999989
 20
205.55000000000001
 30
0.0
 11
31.314690321601152
 21
205.55000000000001
 31
0.0
  0
LINE
  5
212
  8
PATTERN_FILL
  6
CONTINUOUS
 62
     7
 10
31.314690321601152
 20
207.53
 30
0.0
 11
31.314690321601152
 21
205.55000000000001
 31
0.0
  0
LINE
  5
213
  8
PATTERN_FILL
  6
CONTINUOUS
 62
     7
 10
27.249999999999989
 20
203.53
 30
0.0
 11
31.314690321601152
 21
203.53
 31
0.0
  0
LINE
  5
214
  8
PATTERN_FILL
  6
CONTINUOUS
 62
     7
 10
27.249999999999989
 20
201.55000000000001
 30
0.0
 11
31.314690321601152
 21
201.55000000000001
 31
0.0
  0
LINE
  5
215
  8
PATTERN_FILL
  6
CONTINUOUS
 62
     7
 10
31.314690321601152
 20
203.53
 30
0.0
 11
31.314690321601152
 21
201.55000000000001
 31
0.0
  0
LINE
  5
216
  8
PATTERN_FILL
  6
CONTINUOUS
 62
     7
 10
27.249999999999989
 20
199.53
 30
0.0
 11
31.314690321601152
 21
199.53
 31
0.0
  0
LINE
  5
217
  8
PATTERN_FILL
  6
CONTINUOUS
 62
     7
 10
27.249999999999989
 20
197.55000000000001
 30
0.0
 11
31.314690321601152
 21
197.55000000000001
 31
0.0
  0
LINE
  5
218
  8
PATTERN_FILL
  6
CONTINUOUS
 62
     7
 10
31.314690321601152
 20
199.53
 30
0.0
 11
31.314690321601152
 21
197.55000000000001
 31
0.0
  0
LINE
  5
219
  8
PATTERN_FILL
  6
CONTINUOUS
 62
     7
 10
27.249999999999989
 20
195.53
 30
0.0
 11
31.314690321601152
 21
195.53
 31
0.0
  0
LINE
  5
21A
  8
PATTERN_FILL
  6
CONTINUOUS
 62
     7
 10
27.249999999999989
 20
193.55000000000001
 30
0.0
 11
31.314690321601152
 21
193.55000000000001
 31
0.0
  0
LINE
  5
21B
  8
PATTERN_FILL
  6
CONTINUOUS
 62
     7
 10
31.314690321601152
 20
195.53
 30
0.0
 11
31.314690321601152
 21
193.55000000000001
 31
0.0
  0
LINE
  5
21C
  8
PATTERN_FILL
  6
CONTINUOUS
 62
     7
 10
27.249999999999989
 20
191.53
 30
0.0
 11
31.314690321601152
 21
191.53
 31
0.0
  0
LINE
  5
21D
  8
PATTERN_FILL
  6
CONTINUOUS
 62
     7
 10
27.249999999999989
 20
189.55000000000001
 30
0.0
 11
31.314690321601152
 21
189.55000000000001
 31
0.0
  0
LINE
  5
21E
  8
PATTERN_FILL
  6
CONTINUOUS
 62
     7
 10
31.314690321601152
 20
191.53
 30
0.0
 11
31.314690321601152
 21
189.55000000000001
 31
0.0
  0
LINE
  5
21F
  8
PATTERN_FILL
  6
CONTINUOUS
 62
     7
 10
27.249999999999989
 20
187.53
 30
0.0
 11
31.314690321601152
 21
187.53
 31
0.0
  0
LINE
  5
220
  8
PATTERN_FILL
  6
CONTINUOUS
 62
     7
 10
27.249999999999989
 20
185.55000000000001
 30
0.0
 11
31.314690321601152
 21
185.55000000000001
 31
0.0
  0
LINE
  5
221
  8
PATTERN_FILL
  6
CONTINUOUS
 62
     7
 10
31.314690321601152
 20
187.53
 30
0.0
 11
31.314690321601152
 21
185.55000000000001
 31
0.0
  0
LINE
  5
222
  8
PATTERN_FILL
  6
CONTINUOUS
 62
     7
 10
27.249999999999989
 20
183.53
 30
0.0
 11
31.314690321601152
 21
183.53
 31
0.0
  0
LINE
  5
223
  8
PATTERN_FILL
  6
CONTINUOUS
 62
     7
 10
27.249999999999989
 20
181.55000000000001
 30
0.0
 11
31.314690321601152
 21
181.55000000000001
 31
0.0
  0
LINE
  5
224
  8
PATTERN_FILL
  6
CONTINUOUS
 62
     7
 10
31.314690321601152
 20
183.53
 30
0.0
 11
31.314690321601152
 21
181.55000000000001
 31
0.0
  0
LINE
  5
225
  8
PATTERN_FILL
  6
CONTINUOUS
 62
     7
 10
27.249999999999989
 20
179.53
 30
0.0
 11
31.314690321601152
 21
179.53
 31
0.0
  0
LINE
  5
226
  8
PATTERN_FILL
  6
CONTINUOUS
 62
     7
 10
27.249999999999989
 20
177.55000000000001
 30
0.0
 11
31.314690321601152
 21
177.55000000000001
 31
0.0
  0
LINE
  5
227
  8
PATTERN_FILL
  6
CONTINUOUS
 62
     7
 10
31.314690321601152
 20
179.53
 30
0.0
 11
31.314690321601152
 21
177.55000000000001
 31
0.0
  0
LINE
  5
228
  8
PATTERN_FILL
  6
CONTINUOUS
 62
     7
 10
27.249999999999989
 20
175.53
 30
0.0
 11
31.314690321601152
 21
175.53
 31
0.0
  0
LINE
  5
229
  8
PATTERN_FILL
  6
CONTINUOUS
 62
     7
 10
27.249999999999989
 20
173.55000000000001
 30
0.0
 11
31.314690321601152
 21
173.55000000000001
 31
0.0
  0
LINE
  5
22A
  8
PATTERN_FILL
  6
CONTINUOUS
 62
     7
 10
31.314690321601152
 20
175.53
 30
0.0
 11
31.314690321601152
 21
173.55000000000001
 31
0.0
  0
LINE
  5
22B
  8
PATTERN_FILL
  6
CONTINUOUS
 62
     7
 10
27.249999999999989
 20
171.53
 30
0.0
 11
31.314690321601152
 21
171.53
 31
0.0
  0
LINE
  5
22C
  8
PATTERN_FILL
  6
CONTINUOUS
 62
     7
 10
27.249999999999989
 20
169.55000000000001
 30
0.0
 11
31.314690321601152
 21
169.55000000000001
 31
0.0
  0
LINE
  5
22D
  8
PATTERN_FILL
  6
CONTINUOUS
 62
     7
 10
31.314690321601152
 20
171.53
 30
0.0
 11
31.314690321601152
 21
169.55000000000001
 31
0.0
  0
LINE
  5
22E
  8
PATTERN_FILL
  6
CONTINUOUS
 62
     7
 10
27.249999999999989
 20
167.53
 30
0.0
 11
31.314690321601152
 21
167.53
 31
0.0
  0
LINE
  5
22F
  8
PATTERN_FILL
  6
CONTINUOUS
 62
     7
 10
27.249999999999989
 20
165.55000000000001
 30
0.0
 11
31.314690321601152
 21
165.55000000000001
 31
0.0
  0
LINE
  5
230
  8
PATTERN_FILL
  6
CONTINUOUS
 62
     7
 10
31.314690321601152
 20
167.53
 30
0.0
 11
31.314690321601152
 21
165.55000000000001
 31
0.0
  0
LINE
  5
231
  8
PATTERN_FILL
  6
CONTINUOUS
 62
     7
 10
27.249999999999989
 20
163.53
 30
0.0
 11
31.314690321601152
 21
163.53
 31
0.0
  0
LINE
  5
232
  8
PATTERN_FILL
  6
CONTINUOUS
 62
     7
 10
27.249999999999989
 20
161.55000000000001
 30
0.0
 11
31.314690321601152
 21
161.55000000000001
 31
0.0
  0
LINE
  5
233
  8
PATTERN_FILL
  6
CONTINUOUS
 62
     7
 10
31.314690321601152
 20
163.53
 30
0.0
 11
31.314690321601152
 21
161.55000000000001
 31
0.0
  0
LINE
  5
234
  8
PATTERN_FILL
  6
CONTINUOUS
 62
     7
 10
27.249999999999989
 20
159.53
 30
0.0
 11
31.314690321601152
 21
159.53
 31
0.0
  0
LINE
  5
235
  8
PATTERN_FILL
  6
CONTINUOUS
 62
     7
 10
27.249999999999989
 20
157.55000000000001
 30
0.0
 11
31.314690321601152
 21
157.55000000000001
 31
0.0
  0
LINE
  5
236
  8
PATTERN_FILL
  6
CONTINUOUS
 62
     7
 10
31.314690321601152
 20
159.53
 30
0.0
 11
31.314690321601152
 21
157.55000000000001
 31
0.0
  0
LINE
  5
237
  8
PATTERN_FILL
  6
CONTINUOUS
 62
     7
 10
27.249999999999989
 20
155.53
 30
0.0
 11
31.314690321601152
 21
155.53
 31
0.0
  0
LINE
  5
238
  8
PATTERN_FILL
  6
CONTINUOUS
 62
     7
 10
27.249999999999989
 20
153.55000000000001
 30
0.0
 11
31.314690321601152
 21
153.55000000000001
 31
0.0
  0
LINE
  5
239
  8
PATTERN_FILL
  6
CONTINUOUS
 62
     7
 10
31.314690321601152
 20
155.53
 30
0.0
 11
31.314690321601152
 21
153.55000000000001
 31
0.0
  0
LINE
  5
23A
  8
PATTERN_FILL
  6
CONTINUOUS
 62
     7
 10
27.249999999999989
 20
151.53
 30
0.0
 11
31.314690321601152
 21
151.53
 31
0.0
  0
LINE
  5
23B
  8
PATTERN_FILL
  6
CONTINUOUS
 62
     7
 10
27.249999999999989
 20
149.55000000000001
 30
0.0
 11
31.314690321601152
 21
149.55000000000001
 31
0.0
  0
LINE
  5
23C
  8
PATTERN_FILL
  6
CONTINUOUS
 62
     7
 10
31.314690321601152
 20
151.53
 30
0.0
 11
31.314690321601152
 21
149.55000000000001
 31
0.0
  0
LINE
  5
23D
  8
PATTERN_FILL
  6
CONTINUOUS
 62
     7
 10
27.249999999999989
 20
147.53
 30
0.0
 11
31.314690321601152
 21
147.53
 31
0.0
  0
LINE
  5
23E
  8
PATTERN_FILL
  6
CONTINUOUS
 62
     7
 10
27.249999999999989
 20
145.55000000000001
 30
0.0
 11
31.314690321601152
 21
145.55000000000001
 31
0.0
  0
LINE
  5
23F
  8
PATTERN_FILL
  6
CONTINUOUS
 62
     7
 10
31.314690321601152
 20
147.53
 30
0.0
 11
31.314690321601152
 21
145.55000000000001
 31
0.0
  0
LINE
  5
240
  8
PATTERN_FILL
  6
CONTINUOUS
 62
     7
 10
27.249999999999989
 20
143.53
 30
0.0
 11
31.314690321601152
 21
143.53
 31
0.0
  0
LINE
  5
241
  8
PATTERN_FILL
  6
CONTINUOUS
 62
     7
 10
27.249999999999989
 20
141.55000000000001
 30
0.0
 11
31.314690321601152
 21
141.55000000000001
 31
0.0
  0
LINE
  5
242
  8
PATTERN_FILL
  6
CONTINUOUS
 62
     7
 10
31.314690321601152
 20
143.53
 30
0.0
 11
31.314690321601152
 21
141.55000000000001
 31
0.0
  0
LINE
  5
243
  8
PATTERN_FILL
  6
CONTINUOUS
 62
     7
 10
27.249999999999989
 20
124.0
 30
0.0
 11
31.314690321601152
 21
124.0
 31
0.0
  0
LINE
  5
244
  8
PATTERN_FILL
  6
CONTINUOUS
 62
     7
 10
27.249999999999989
 20
122.02
 30
0.0
 11
31.314690321601152
 21
122.02
 31
0.0
  0
LINE
  5
245
  8
PATTERN_FILL
  6
CONTINUOUS
 62
     7
 10
31.314690321601152
 20
124.0
 30
0.0
 11
31.314690321601152
 21
122.02
 31
0.0
  0
LINE
  5
246
  8
PATTERN_FILL
  6
CONTINUOUS
 62
     7
 10
27.249999999999989
 20
120.0
 30
0.0
 11
31.314690321601152
 21
120.0
 31
0.0
  0
LINE
  5
247
  8
PATTERN_FILL
  6
CONTINUOUS
 62
     7
 10
27.249999999999989
 20
118.02
 30
0.0
 11
31.314690321601152
 21
118.02
 31
0.0
  0
LINE
  5
248
  8
PATTERN_FILL
  6
CONTINUOUS
 62
     7
 10
31.314690321601152
 20
120.0
 30
0.0
 11
31.314690321601152
 21
118.02
 31
0.0
  0
LINE
  5
249
  8
PATTERN_FILL
  6
CONTINUOUS
 62
     7
 10
27.249999999999989
 20
116.0
 30
0.0
 11
31.314690321601152
 21
116.0
 31
0.0
  0
LINE
  5
24A
  8
PATTERN_FILL
  6
CONTINUOUS
 62
     7
 10
27.249999999999989
 20
114.02
 30
0.0
 11
31.314690321601152
 21
114.02
 31
0.0
  0
LINE
  5
24B
  8
PATTERN_FILL
  6
CONTINUOUS
 62
     7
 10
31.314690321601152
 20
116.0
 30
0.0
 11
31.314690321601152
 21
114.02
 31
0.0
  0
LINE
  5
24C
  8
PATTERN_FILL
  6
CONTINUOUS
 62
     7
 10
27.249999999999989
 20
112.0
 30
0.0
 11
31.314690321601152
 21
112.0
 31
0.0
  0
LINE
  5
24D
  8
PATTERN_FILL
  6
CONTINUOUS
 62
     7
 10
27.249999999999989
 20
110.02
 30
0.0
 11
31.314690321601152
 21
110.02
 31
0.0
  0
LINE
  5
24E
  8
PATTERN_FILL
  6
CONTINUOUS
 62
     7
 10
31.314690321601152
 20
112.0
 30
0.0
 11
31.314690321601152
 21
110.02
 31
0.0
  0
LINE
  5
24F
  8
PATTERN_FILL
  6
CONTINUOUS
 62
     7
 10
27.249999999999989
 20
108.0
 30
0.0
 11
31.314690321601152
 21
108.0
 31
0.0
  0
LINE
  5
250
  8
PATTERN_FILL
  6
CONTINUOUS
 62
     7
 10
27.249999999999989
 20
106.02
 30
0.0
 11
31.314690321601152
 21
106.02
 31
0.0
  0
LINE
  5
251
  8
PATTERN_FILL
  6
CONTINUOUS
 62
     7
 10
31.314690321601152
 20
108.0
 30
0.0
 11
31.314690321601152
 21
106.02
 31
0.0
  0
LINE
  5
252
  8
PATTERN_FILL
  6
CONTINUOUS
 62
     7
 10
27.249999999999989
 20
104.0
 30
0.0
 11
31.314690321601152
 21
104.0
 31
0.0
  0
LINE
  5
253
  8
PATTERN_FILL
  6
CONTINUOUS
 62
     7
 10
27.249999999999989
 20
102.02
 30
0.0
 11
31.314690321601152
 21
102.02
 31
0.0
  0
LINE
  5
254
  8
PATTERN_FILL
  6
CONTINUOUS
 62
     7
 10
31.314690321601152
 20
104.0
 30
0.0
 11
31.314690321601152
 21
102.02
 31
0.0
  0
LINE
  5
255
  8
PATTERN_FILL
  6
CONTINUOUS
 62
     7
 10
27.249999999999989
 20
100.0
 30
0.0
 11
31.314690321601152
 21
100.0
 31
0.0
  0
LINE
  5
256
  8
PATTERN_FILL
  6
CONTINUOUS
 62
     7
 10
27.249999999999989
 20
98.019999999999996
 30
0.0
 11
31.314690321601152
 21
98.019999999999996
 31
0.0
  0
LINE
  5
257
  8
PATTERN_FILL
  6
CONTINUOUS
 62
     7
 10
31.314690321601152
 20
100.0
 30
0.0
 11
31.314690321601152
 21
98.019999999999996
 31
0.0
  0
LINE
  5
258
  8
PATTERN_FILL
  6
CONTINUOUS
 62
     7
 10
27.249999999999989
 20
96.0
 30
0.0
 11
31.314690321601152
 21
96.0
 31
0.0
  0
LINE
  5
259
  8
PATTERN_FILL
  6
CONTINUOUS
 62
     7
 10
27.249999999999989
 20
94.019999999999996
 30
0.0
 11
31.314690321601152
 21
94.019999999999996
 31
0.0
  0
LINE
  5
25A
  8
PATTERN_FILL
  6
CONTINUOUS
 62
     7
 10
31.314690321601152
 20
96.0
 30
0.0
 11
31.314690321601152
 21
94.019999999999996
 31
0.0
  0
LINE
  5
25B
  8
PATTERN_FILL
  6
CONTINUOUS
 62
     7
 10
27.249999999999989
 20
92.0
 30
0.0
 11
31.314690321601152
 21
92.0
 31
0.0
  0
LINE
  5
25C
  8
PATTERN_FILL
  6
CONTINUOUS
 62
     7
 10
27.249999999999989
 20
90.019999999999982
 30
0.0
 11
31.314690321601152
 21
90.019999999999982
 31
0.0
  0
LINE
  5
25D
  8
PATTERN_FILL
  6
CONTINUOUS
 62
     7
 10
31.314690321601152
 20
92.0
 30
0.0
 11
31.314690321601152
 21
90.019999999999982
 31
0.0
  0
LINE
  5
25E
  8
PATTERN_FILL
  6
CONTINUOUS
 62
     7
 10
27.249999999999989
 20
88.0
 30
0.0
 11
31.314690321601152
 21
88.0
 31
0.0
  0
LINE
  5
25F
  8
PATTERN_FILL
  6
CONTINUOUS
 62
     7
 10
27.249999999999989
 20
86.019999999999982
 30
0.0
 11
31.314690321601152
 21
86.019999999999982
 31
0.0
  0
LINE
  5
260
  8
PATTERN_FILL
  6
CONTINUOUS
 62
     7
 10
31.314690321601152
 20
88.0
 30
0.0
 11
31.314690321601152
 21
86.019999999999982
 31
0.0
  0
LINE
  5
261
  8
PATTERN_FILL
  6
CONTINUOUS
 62
     7
 10
27.249999999999989
 20
84.0
 30
0.0
 11
31.314690321601152
 21
84.0
 31
0.0
  0
LINE
  5
262
  8
PATTERN_FILL
  6
CONTINUOUS
 62
     7
 10
27.249999999999989
 20
82.019999999999982
 30
0.0
 11
31.314690321601152
 21
82.019999999999982
 31
0.0
  0
LINE
  5
263
  8
PATTERN_FILL
  6
CONTINUOUS
 62
     7
 10
31.314690321601152
 20
84.0
 30
0.0
 11
31.314690321601152
 21
82.019999999999982
 31
0.0
  0
LINE
  5
264
  8
PATTERN_FILL
  6
CONTINUOUS
 62
     7
 10
27.249999999999989
 20
80.0
 30
0.0
 11
31.314690321601152
 21
80.0
 31
0.0
  0
LINE
  5
265
  8
PATTERN_FILL
  6
CONTINUOUS
 62
     7
 10
27.249999999999989
 20
78.019999999999982
 30
0.0
 11
31.314690321601152
 21
78.019999999999982
 31
0.0
  0
LINE
  5
266
  8
PATTERN_FILL
  6
CONTINUOUS
 62
     7
 10
31.314690321601152
 20
80.0
 30
0.0
 11
31.314690321601152
 21
78.019999999999982
 31
0.0
  0
LINE
  5
267
  8
PATTERN_FILL
  6
CONTINUOUS
 62
     7
 10
27.249999999999989
 20
76.0
 30
0.0
 11
31.314690321601152
 21
76.0
 31
0.0
  0
LINE
  5
268
  8
PATTERN_FILL
  6
CONTINUOUS
 62
     7
 10
27.249999999999989
 20
74.019999999999982
 30
0.0
 11
31.314690321601152
 21
74.019999999999982
 31
0.0
  0
LINE
  5
269
  8
PATTERN_FILL
  6
CONTINUOUS
 62
     7
 10
31.314690321601152
 20
76.0
 30
0.0
 11
31.314690321601152
 21
74.019999999999982
 31
0.0
  0
LINE
  5
26A
  8
PATTERN_FILL
  6
CONTINUOUS
 62
     7
 10
27.249999999999989
 20
72.0
 30
0.0
 11
31.314690321601152
 21
72.0
 31
0.0
  0
LINE
  5
26B
  8
PATTERN_FILL
  6
CONTINUOUS
 62
     7
 10
27.249999999999989
 20
70.019999999999996
 30
0.0
 11
31.314690321601152
 21
70.019999999999996
 31
0.0
  0
LINE
  5
26C
  8
PATTERN_FILL
  6
CONTINUOUS
 62
     7
 10
31.314690321601152
 20
72.0
 30
0.0
 11
31.314690321601152
 21
70.019999999999996
 31
0.0
  0
LINE
  5
26D
  8
PATTERN_FILL
  6
CONTINUOUS
 62
     7
 10
27.249999999999989
 20
68.0
 30
0.0
 11
31.314690321601152
 21
68.0
 31
0.0
  0
LINE
  5
26E
  8
PATTERN_FILL
  6
CONTINUOUS
 62
     7
 10
27.249999999999989
 20
66.019999999999996
 30
0.0
 11
31.314690321601152
 21
66.019999999999996
 31
0.0
  0
LINE
  5
26F
  8
PATTERN_FILL
  6
CONTINUOUS
 62
     7
 10
31.314690321601152
 20
68.0
 30
0.0
 11
31.314690321601152
 21
66.019999999999996
 31
0.0
  0
LINE
  5
270
  8
PATTERN_FILL
  6
CONTINUOUS
 62
     7
 10
27.249999999999989
 20
64.0
 30
0.0
 11
31.314690321601152
 21
64.0
 31
0.0
  0
LINE
  5
271
  8
PATTERN_FILL
  6
CONTINUOUS
 62
     7
 10
27.249999999999989
 20
62.020000000000003
 30
0.0
 11
31.314690321601152
 21
62.020000000000003
 31
0.0
  0
LINE
  5
272
  8
PATTERN_FILL
  6
CONTINUOUS
 62
     7
 10
31.314690321601152
 20
64.0
 30
0.0
 11
31.314690321601152
 21
62.020000000000003
 31
0.0
  0
LINE
  5
273
  8
PATTERN_FILL
  6
CONTINUOUS
 62
     7
 10
27.249999999999989
 20
60.0
 30
0.0
 11
31.314690321601152
 21
60.0
 31
0.0
  0
LINE
  5
274
  8
PATTERN_FILL
  6
CONTINUOUS
 62
     7
 10
27.249999999999989
 20
58.020000000000003
 30
0.0
 11
31.314690321601152
 21
58.020000000000003
 31
0.0
  0
LINE
  5
275
  8
PATTERN_FILL
  6
CONTINUOUS
 62
     7
 10
31.314690321601152
 20
60.0
 30
0.0
 11
31.314690321601152
 21
58.020000000000003
 31
0.0
  0
LINE
  5
276
  8
PATTERN_FILL
  6
CONTINUOUS
 62
     7
 10
27.249999999999989
 20
56.0
 30
0.0
 11
31.314690321601152
 21
56.0
 31
0.0
  0
LINE
  5
277
  8
PATTERN_FILL
  6
CONTINUOUS
 62
     7
 10
27.249999999999989
 20
54.02000000000001
 30
0.0
 11
31.314690321601152
 21
54.02000000000001
 31
0.0
  0
LINE
  5
278
  8
PATTERN_FILL
  6
CONTINUOUS
 62
     7
 10
31.314690321601152
 20
56.0
 30
0.0
 11
31.314690321601152
 21
54.02000000000001
 31
0.0
  0
LINE
  5
279
  8
PATTERN_FILL
  6
CONTINUOUS
 62
     7
 10
27.249999999999989
 20
52.0
 30
0.0
 11
31.314690321601152
 21
52.0
 31
0.0
  0
LINE
  5
27A
  8
PATTERN_FILL
  6
CONTINUOUS
 62
     7
 10
27.249999999999989
 20
50.020000000000003
 30
0.0
 11
31.314690321601152
 21
50.020000000000003
 31
0.0
  0
LINE
  5
27B
  8
PATTERN_FILL
  6
CONTINUOUS
 62
     7
 10
31.314690321601152
 20
52.0
 30
0.0
 11
31.314690321601152
 21
50.020000000000003
 31
0.0
  0
LINE
  5
27C
  8
PATTERN_FILL
  6
CONTINUOUS
 62
     7
 10
27.249999999999989
 20
48.0
 30
0.0
 11
31.314690321601152
 21
48.0
 31
0.0
  0
LINE
  5
27D
  8
PATTERN_FILL
  6
CONTINUOUS
 62
     7
 10
27.249999999999989
 20
46.020000000000003
 30
0.0
 11
31.314690321601152
 21
46.020000000000003
 31
0.0
  0
LINE
  5
27E
  8
PATTERN_FILL
  6
CONTINUOUS
 62
     7
 10
31.314690321601152
 20
48.0
 30
0.0
 11
31.314690321601152
 21
46.020000000000003
 31
0.0
  0
LINE
  5
27F
  8
PATTERN_FILL
  6
CONTINUOUS
 62
     7
 10
27.249999999999989
 20
44.0
 30
0.0
 11
31.314690321601152
 21
44.0
 31
0.0
  0
LINE
  5
280
  8
PATTERN_FILL
  6
CONTINUOUS
 62
     7
 10
27.249999999999989
 20
42.020000000000003
 30
0.0
 11
31.314690321601152
 21
42.020000000000003
 31
0.0
  0
LINE
  5
281
  8
PATTERN_FILL
  6
CONTINUOUS
 62
     7
 10
31.314690321601152
 20
44.0
 30
0.0
 11
31.314690321601152
 21
42.020000000000003
 31
0.0
  0
LINE
  5
282
  8
PATTERN_FILL
  6
CONTINUOUS
 62
     7
 10
27.249999999999989
 20
40.0
 30
0.0
 11
31.314690321601152
 21
40.0
 31
0.0
  0
LINE
  5
283
  8
PATTERN_FILL
  6
CONTINUOUS
 62
     7
 10
27.249999999999989
 20
38.02000000000001
 30
0.0
 11
31.314690321601152
 21
38.02000000000001
 31
0.0
  0
LINE
  5
284
  8
PATTERN_FILL
  6
CONTINUOUS
 62
     7
 10
31.314690321601152
 20
40.0
 30
0.0
 11
31.314690321601152
 21
38.02000000000001
 31
0.0
  0
LINE
  5
285
  8
PATTERN_FILL
  6
CONTINUOUS
 62
     7
 10
27.249999999999989
 20
36.0
 30
0.0
 11
31.314690321601152
 21
36.0
 31
0.0
  0
LINE
  5
286
  8
PATTERN_FILL
  6
CONTINUOUS
 62
     7
 10
27.249999999999989
 20
34.02000000000001
 30
0.0
 11
31.314690321601152
 21
34.02000000000001
 31
0.0
  0
LINE
  5
287
  8
PATTERN_FILL
  6
CONTINUOUS
 62
     7
 10
31.314690321601152
 20
36.0
 30
0.0
 11
31.314690321601152
 21
34.02000000000001
 31
0.0
  0
LINE
  5
288
  8
PATTERN_FILL
  6
CONTINUOUS
 62
     7
 10
27.249999999999989
 20
32.0
 30
0.0
 11
31.314690321601152
 21
32.0
 31
0.0
  0
LINE
  5
289
  8
PATTERN_FILL
  6
CONTINUOUS
 62
     7
 10
27.249999999999989
 20
30.02
 30
0.0
 11
31.314690321601152
 21
30.02
 31
0.0
  0
LINE
  5
28A
  8
PATTERN_FILL
  6
CONTINUOUS
 62
     7
 10
31.314690321601152
 20
32.0
 30
0.0
 11
31.314690321601152
 21
30.02
 31
0.0
  0
LINE
  5
28B
  8
PATTERN_FILL
  6
CONTINUOUS
 62
     7
 10
27.249999999999989
 20
28.0
 30
0.0
 11
31.314690321601152
 21
28.0
 31
0.0
  0
LINE
  5
28C
  8
PATTERN_FILL
  6
CONTINUOUS
 62
     7
 10
27.249999999999989
 20
26.02
 30
0.0
 11
31.314690321601152
 21
26.02
 31
0.0
  0
LINE
  5
28D
  8
PATTERN_FILL
  6
CONTINUOUS
 62
     7
 10
31.314690321601152
 20
28.0
 30
0.0
 11
31.314690321601152
 21
26.02
 31
0.0
  0
LINE
  5
28E
  8
PATTERN_FILL
  6
CONTINUOUS
 62
     7
 10
27.249999999999989
 20
24.0
 30
0.0
 11
31.314690321601152
 21
24.0
 31
0.0
  0
LINE
  5
28F
  8
PATTERN_FILL
  6
CONTINUOUS
 62
     7
 10
27.249999999999989
 20
22.019999999999989
 30
0.0
 11
31.314690321601152
 21
22.019999999999989
 31
0.0
  0
LINE
  5
290
  8
PATTERN_FILL
  6
CONTINUOUS
 62
     7
 10
31.314690321601152
 20
24.0
 30
0.0
 11
31.314690321601152
 21
22.019999999999989
 31
0.0
  0
LINE
  5
291
  8
PATTERN_FILL
  6
CONTINUOUS
 62
     7
 10
27.249999999999989
 20
20.0
 30
0.0
 11
31.314690321601152
 21
20.0
 31
0.0
  0
LINE
  5
292
  8
PATTERN_FILL
  6
CONTINUOUS
 62
     7
 10
27.249999999999989
 20
18.019999999999978
 30
0.0
 11
31.314690321601152
 21
18.019999999999978
 31
0.0
  0
LINE
  5
293
  8
PATTERN_FILL
  6
CONTINUOUS
 62
     7
 10
31.314690321601152
 20
20.0
 30
0.0
 11
31.314690321601152
 21
18.019999999999978
 31
0.0
  0
LINE
  5
294
  8
PATTERN_FILL
  6
CONTINUOUS
 62
     7
 10
27.249999999999989
 20
16.0
 30
0.0
 11
31.314690321601152
 21
16.0
 31
0.0
  0
LINE
  5
295
  8
PATTERN_FILL
  6
CONTINUOUS
 62
     7
 10
27.249999999999989
 20
14.01999999999998
 30
0.0
 11
31.314690321601152
 21
14.01999999999998
 31
0.0
  0
LINE
  5
296
  8
PATTERN_FILL
  6
CONTINUOUS
 62
     7
 10
31.314690321601152
 20
16.0
 30
0.0
 11
31.314690321601152
 21
14.01999999999998
 31
0.0
  0
LINE
  5
297
  8
PATTERN_FILL
  6
CONTINUOUS
 62
     7
 10
27.249999999999989
 20
12.0
 30
0.0
 11
31.314690321601152
 21
12.0
 31
0.0
  0
LINE
  5
298
  8
PATTERN_FILL
  6
CONTINUOUS
 62
     7
 10
27.249999999999989
 20
10.01999999999998
 30
0.0
 11
31.314690321601152
 21
10.01999999999998
 31
0.0
  0
LINE
  5
299
  8
PATTERN_FILL
  6
CONTINUOUS
 62
     7
 10
31.314690321601152
 20
12.0
 30
0.0
 11
31.314690321601152
 21
10.01999999999998
 31
0.0
  0
LINE
  5
29A
  8
PATTERN_FILL
  6
CONTINUOUS
 62
     7
 10
27.249999999999989
 20
8.0
 30
0.0
 11
31.314690321601152
 21
8.0
 31
0.0
  0
LINE
  5
29B
  8
PATTERN_FILL
  6
CONTINUOUS
 62
     7
 10
27.249999999999989
 20
6.0199999999999809
 30
0.0
 11
31.314690321601152
 21
6.0199999999999809
 31
0.0
  0
LINE
  5
29C
  8
PATTERN_FILL
  6
CONTINUOUS
 62
     7
 10
31.314690321601152
 20
8.0
 30
0.0
 11
31.314690321601152
 21
6.0199999999999809
 31
0.0
  0
LINE
  5
29D
  8
PATTERN_FILL
  6
CONTINUOUS
 62
     7
 10
27.249999999999989
 20
4.0
 30
0.0
 11
31.314690321601152
 21
4.0
 31
0.0
  0
LINE
  5
29E
  8
PATTERN_FILL
  6
CONTINUOUS
 62
     7
 10
27.249999999999989
 20
2.0199999999999809
 30
0.0
 11
31.314690321601152
 21
2.0199999999999809
 31
0.0
  0
LINE
  5
29F
  8
PATTERN_FILL
  6
CONTINUOUS
 62
     7
 10
31.314690321601152
 20
4.0
 30
0.0
 11
31.314690321601152
 21
2.0199999999999809
 31
0.0
  0
LINE
  5
2A0
  8
PATTERN_FILL
  6
CONTINUOUS
 62
     7
 10
27.249999999999989
 20
0.0
 30
0.0
 11
31.314690321601152
 21
0.0
 31
0.0
  0
LINE
  5
2A1
  8
PATTERN_FILL
  6
CONTINUOUS
 62
     7
 10
27.249999999999989
 20
-1.980000000000018
 30
0.0
 11
31.314690321601152
 21
-1.980000000000018
 31
0.0
  0
LINE
  5
2A2
  8
PATTERN_FILL
  6
CONTINUOUS
 62
     7
 10
31.314690321601152
 20
0.0
 30
0.0
 11
31.314690321601152
 21
-1.980000000000018
 31
0.0
  0
LINE
  5
2A3
  8
PATTERN_FILL
  6
CONTINUOUS
 62
     7
 10
29.95000000000001
 20
-16.879999999999988
 30
0.0
 11
45.54999999999999
 21
-16.879999999999988
 31
0.0
  0
LINE
  5
2A4
  8
PATTERN_FILL
  6
CONTINUOUS
 62
     7
 10
29.95000000000001
 20
-18.86000000000001
 30
0.0
 11
45.54999999999999
 21
-18.86000000000001
 31
0.0
  0
LINE
  5
2A5
  8
PATTERN_FILL
  6
CONTINUOUS
 62
     7
 10
29.95000000000001
 20
-16.879999999999988
 30
0.0
 11
29.95000000000001
 21
-18.86000000000001
 31
0.0
  0
LINE
  5
2A6
  8
PATTERN_FILL
  6
CONTINUOUS
 62
     7
 10
45.54999999999999
 20
-16.879999999999988
 30
0.0
 11
45.54999999999999
 21
-18.86000000000001
 31
0.0
  0
LINE
  5
2A7
  8
PATTERN_FILL
  6
CONTINUOUS
 62
     7
 10
29.95000000000001
 20
-20.879999999999999
 30
0.0
 11
45.54999999999999
 21
-20.879999999999999
 31
0.0
  0
LINE
  5
2A8
  8
PATTERN_FILL
  6
CONTINUOUS
 62
     7
 10
29.95000000000001
 20
-22.86000000000001
 30
0.0
 11
45.54999999999999
 21
-22.86000000000001
 31
0.0
  0
LINE
  5
2A9
  8
PATTERN_FILL
  6
CONTINUOUS
 62
     7
 10
29.95000000000001
 20
-20.879999999999999
 30
0.0
 11
29.95000000000001
 21
-22.86000000000001
 31
0.0
  0
LINE
  5
2AA
  8
PATTERN_FILL
  6
CONTINUOUS
 62
     7
 10
45.54999999999999
 20
-20.879999999999999
 30
0.0
 11
45.54999999999999
 21
-22.86000000000001
 31
0.0
  0
LINE
  5
2AB
  8
PATTERN_FILL
  6
CONTINUOUS
 62
     7
 10
29.95000000000001
 20
-24.879999999999988
 30
0.0
 11
45.54999999999999
 21
-24.879999999999988
 31
0.0
  0
LINE
  5
2AC
  8
PATTERN_FILL
  6
CONTINUOUS
 62
     7
 10
29.95000000000001
 20
-26.86000000000001
 30
0.0
 11
45.54999999999999
 21
-26.86000000000001
 31
0.0
  0
LINE
  5
2AD
  8
PATTERN_FILL
  6
CONTINUOUS
 62
     7
 10
29.95000000000001
 20
-24.879999999999988
 30
0.0
 11
29.95000000000001
 21
-26.86000000000001
 31
0.0
  0
LINE
  5
2AE
  8
PATTERN_FILL
  6
CONTINUOUS
 62
     7
 10
45.54999999999999
 20
-24.879999999999988
 30
0.0
 11
45.54999999999999
 21
-26.86000000000001
 31
0.0
  0
LINE
  5
2AF
  8
PATTERN_FILL
  6
CONTINUOUS
 62
     7
 10
254.69999999999999
 20
-16.879999999999988
 30
0.0
 11
270.30000000000001
 21
-16.879999999999988
 31
0.0
  0
LINE
  5
2B0
  8
PATTERN_FILL
  6
CONTINUOUS
 62
     7
 10
254.69999999999999
 20
-18.86000000000001
 30
0.0
 11
270.30000000000001
 21
-18.86000000000001
 31
0.0
  0
LINE
  5
2B1
  8
PATTERN_FILL
  6
CONTINUOUS
 62
     7
 10
254.69999999999999
 20
-16.879999999999988
 30
0.0
 11
254.69999999999999
 21
-18.86000000000001
 31
0.0
  0
LINE
  5
2B2
  8
PATTERN_FILL
  6
CONTINUOUS
 62
     7
 10
270.30000000000001
 20
-16.879999999999988
 30
0.0
 11
270.30000000000001
 21
-18.86000000000001
 31
0.0
  0
LINE
  5
2B3
  8
PATTERN_FILL
  6
CONTINUOUS
 62
     7
 10
254.69999999999999
 20
-20.879999999999999
 30
0.0
 11
270.30000000000001
 21
-20.879999999999999
 31
0.0
  0
LINE
  5
2B4
  8
PATTERN_FILL
  6
CONTINUOUS
 62
     7
 10
254.69999999999999
 20
-22.86000000000001
 30
0.0
 11
270.30000000000001
 21
-22.86000000000001
 31
0.0
  0
LINE
  5
2B5
  8
PATTERN_FILL
  6
CONTINUOUS
 62
     7
 10
254.69999999999999
 20
-20.879999999999999
 30
0.0
 11
254.69999999999999
 21
-22.86000000000001
 31
0.0
  0
LINE
  5
2B6
  8
PATTERN_FILL
  6
CONTINUOUS
 62
     7
 10
270.30000000000001
 20
-20.879999999999999
 30
0.0
 11
270.30000000000001
 21
-22.86000000000001
 31
0.0
  0
LINE
  5
2B7
  8
PATTERN_FILL
  6
CONTINUOUS
 62
     7
 10
254.69999999999999
 20
-24.879999999999988
 30
0.0
 11
270.30000000000001
 21
-24.879999999999988
 31
0.0
  0
LINE
  5
2B8
  8
PATTERN_FILL
  6
CONTINUOUS
 62
     7
 10
254.69999999999999
 20
-26.86000000000001
 30
0.0
 11
270.30000000000001
 21
-26.86000000000001
 31
0.0
  0
LINE
  5
2B9
  8
PATTERN_FILL
  6
CONTINUOUS
 62
     7
 10
254.69999999999999
 20
-24.879999999999988
 30
0.0
 11
254.69999999999999
 21
-26.86000000000001
 31
0.0
  0
LINE
  5
2BA
  8
PATTERN_FILL
  6
CONTINUOUS
 62
     7
 10
270.30000000000001
 20
-24.879999999999988
 30
0.0
 11
270.30000000000001
 21
-26.86000000000001
 31
0.0
  0
LINE
  5
2BB
  8
PATTERN_FILL
  6
CONTINUOUS
 62
     7
 10
252.0
 20
124.0
 30
0.0
 11
255.93247753031
 21
124.0
 31
0.0
  0
LINE
  5
2BC
  8
PATTERN_FILL
  6
CONTINUOUS
 62
     7
 10
252.0
 20
122.02
 30
0.0
 11
255.93247753031
 21
122.02
 31
0.0
  0
LINE
  5
2BD
  8
PATTERN_FILL
  6
CONTINUOUS
 62
     7
 10
255.93247753031
 20
124.0
 30
0.0
 11
255.93247753031
 21
122.02
 31
0.0
  0
LINE
  5
2BE
  8
PATTERN_FILL
  6
CONTINUOUS
 62
     7
 10
252.0
 20
120.0
 30
0.0
 11
255.93247753031
 21
120.0
 31
0.0
  0
LINE
  5
2BF
  8
PATTERN_FILL
  6
CONTINUOUS
 62
     7
 10
252.0
 20
118.02
 30
0.0
 11
255.93247753031
 21
118.02
 31
0.0
  0
LINE
  5
2C0
  8
PATTERN_FILL
  6
CONTINUOUS
 62
     7
 10
255.93247753031
 20
120.0
 30
0.0
 11
255.93247753031
 21
118.02
 31
0.0
  0
LINE
  5
2C1
  8
PATTERN_FILL
  6
CONTINUOUS
 62
     7
 10
252.0
 20
116.0
 30
0.0
 11
255.93247753031
 21
116.0
 31
0.0
  0
LINE
  5
2C2
  8
PATTERN_FILL
  6
CONTINUOUS
 62
     7
 10
252.0
 20
114.02
 30
0.0
 11
255.93247753031
 21
114.02
 31
0.0
  0
LINE
  5
2C3
  8
PATTERN_FILL
  6
CONTINUOUS
 62
     7
 10
255.93247753031
 20
116.0
 30
0.0
 11
255.93247753031
 21
114.02
 31
0.0
  0
LINE
  5
2C4
  8
PATTERN_FILL
  6
CONTINUOUS
 62
     7
 10
252.0
 20
112.0
 30
0.0
 11
255.93247753031
 21
112.0
 31
0.0
  0
LINE
  5
2C5
  8
PATTERN_FILL
  6
CONTINUOUS
 62
     7
 10
252.0
 20
110.02
 30
0.0
 11
255.93247753031
 21
110.02
 31
0.0
  0
LINE
  5
2C6
  8
PATTERN_FILL
  6
CONTINUOUS
 62
     7
 10
255.93247753031
 20
112.0
 30
0.0
 11
255.93247753031
 21
110.02
 31
0.0
  0
LINE
  5
2C7
  8
PATTERN_FILL
  6
CONTINUOUS
 62
     7
 10
252.0
 20
108.0
 30
0.0
 11
255.93247753031
 21
108.0
 31
0.0
  0
LINE
  5
2C8
  8
PATTERN_FILL
  6
CONTINUOUS
 62
     7
 10
252.0
 20
106.02
 30
0.0
 11
255.93247753031
 21
106.02
 31
0.0
  0
LINE
  5
2C9
  8
PATTERN_FILL
  6
CONTINUOUS
 62
     7
 10
255.93247753031
 20
108.0
 30
0.0
 11
255.93247753031
 21
106.02
 31
0.0
  0
LINE
  5
2CA
  8
PATTERN_FILL
  6
CONTINUOUS
 62
     7
 10
252.0
 20
104.0
 30
0.0
 11
255.93247753031
 21
104.0
 31
0.0
  0
LINE
  5
2CB
  8
PATTERN_FILL
  6
CONTINUOUS
 62
     7
 10
252.0
 20
102.02
 30
0.0
 11
255.93247753031
 21
102.02
 31
0.0
  0
LINE
  5
2CC
  8
PATTERN_FILL
  6
CONTINUOUS
 62
     7
 10
255.93247753031
 20
104.0
 30
0.0
 11
255.93247753031
 21
102.02
 31
0.0
  0
LINE
  5
2CD
  8
PATTERN_FILL
  6
CONTINUOUS
 62
     7
 10
252.0
 20
100.0
 30
0.0
 11
255.93247753031
 21
100.0
 31
0.0
  0
LINE
  5
2CE
  8
PATTERN_FILL
  6
CONTINUOUS
 62
     7
 10
252.0
 20
98.019999999999996
 30
0.0
 11
255.93247753031
 21
98.019999999999996
 31
0.0
  0
LINE
  5
2CF
  8
PATTERN_FILL
  6
CONTINUOUS
 62
     7
 10
255.93247753031
 20
100.0
 30
0.0
 11
255.93247753031
 21
98.019999999999996
 31
0.0
  0
LINE
  5
2D0
  8
PATTERN_FILL
  6
CONTINUOUS
 62
     7
 10
252.0
 20
96.0
 30
0.0
 11
255.93247753031
 21
96.0
 31
0.0
  0
LINE
  5
2D1
  8
PATTERN_FILL
  6
CONTINUOUS
 62
     7
 10
252.0
 20
94.019999999999996
 30
0.0
 11
255.93247753031
 21
94.019999999999996
 31
0.0
  0
LINE
  5
2D2
  8
PATTERN_FILL
  6
CONTINUOUS
 62
     7
 10
255.93247753031
 20
96.0
 30
0.0
 11
255.93247753031
 21
94.019999999999996
 31
0.0
  0
LINE
  5
2D3
  8
PATTERN_FILL
  6
CONTINUOUS
 62
     7
 10
252.0
 20
92.0
 30
0.0
 11
255.93247753031
 21
92.0
 31
0.0
  0
LINE
  5
2D4
  8
PATTERN_FILL
  6
CONTINUOUS
 62
     7
 10
252.0
 20
90.019999999999982
 30
0.0
 11
255.93247753031
 21
90.019999999999982
 31
0.0
  0
LINE
  5
2D5
  8
PATTERN_FILL
  6
CONTINUOUS
 62
     7
 10
255.93247753031
 20
92.0
 30
0.0
 11
255.93247753031
 21
90.019999999999982
 31
0.0
  0
LINE
  5
2D6
  8
PATTERN_FILL
  6
CONTINUOUS
 62
     7
 10
252.0
 20
88.0
 30
0.0
 11
255.93247753031
 21
88.0
 31
0.0
  0
LINE
  5
2D7
  8
PATTERN_FILL
  6
CONTINUOUS
 62
     7
 10
252.0
 20
86.019999999999982
 30
0.0
 11
255.93247753031
 21
86.019999999999982
 31
0.0
  0
LINE
  5
2D8
  8
PATTERN_FILL
  6
CONTINUOUS
 62
     7
 10
255.93247753031
 20
88.0
 30
0.0
 11
255.93247753031
 21
86.019999999999982
 31
0.0
  0
LINE
  5
2D9
  8
PATTERN_FILL
  6
CONTINUOUS
 62
     7
 10
252.0
 20
84.0
 30
0.0
 11
255.93247753031
 21
84.0
 31
0.0
  0
LINE
  5
2DA
  8
PATTERN_FILL
  6
CONTINUOUS
 62
     7
 10
252.0
 20
82.019999999999982
 30
0.0
 11
255.93247753031
 21
82.019999999999982
 31
0.0
  0
LINE
  5
2DB
  8
PATTERN_FILL
  6
CONTINUOUS
 62
     7
 10
255.93247753031
 20
84.0
 30
0.0
 11
255.93247753031
 21
82.019999999999982
 31
0.0
  0
LINE
  5
2DC
  8
PATTERN_FILL
  6
CONTINUOUS
 62
     7
 10
252.0
 20
80.0
 30
0.0
 11
255.93247753031
 21
80.0
 31
0.0
  0
LINE
  5
2DD
  8
PATTERN_FILL
  6
CONTINUOUS
 62
     7
 10
252.0
 20
78.019999999999982
 30
0.0
 11
255.93247753031
 21
78.019999999999982
 31
0.0
  0
LINE
  5
2DE
  8
PATTERN_FILL
  6
CONTINUOUS
 62
     7
 10
255.93247753031
 20
80.0
 30
0.0
 11
255.93247753031
 21
78.019999999999982
 31
0.0
  0
LINE
  5
2DF
  8
PATTERN_FILL
  6
CONTINUOUS
 62
     7
 10
252.0
 20
76.0
 30
0.0
 11
255.93247753031
 21
76.0
 31
0.0
  0
LINE
  5
2E0
  8
PATTERN_FILL
  6
CONTINUOUS
 62
     7
 10
252.0
 20
74.019999999999982
 30
0.0
 11
255.93247753031
 21
74.019999999999982
 31
0.0
  0
LINE
  5
2E1
  8
PATTERN_FILL
  6
CONTINUOUS
 62
     7
 10
255.93247753031
 20
76.0
 30
0.0
 11
255.93247753031
 21
74.019999999999982
 31
0.0
  0
LINE
  5
2E2
  8
PATTERN_FILL
  6
CONTINUOUS
 62
     7
 10
252.0
 20
72.0
 30
0.0
 11
255.93247753031
 21
72.0
 31
0.0
  0
LINE
  5
2E3
  8
PATTERN_FILL
  6
CONTINUOUS
 62
     7
 10
252.0
 20
70.019999999999996
 30
0.0
 11
255.93247753031
 21
70.019999999999996
 31
0.0
  0
LINE
  5
2E4
  8
PATTERN_FILL
  6
CONTINUOUS
 62
     7
 10
255.93247753031
 20
72.0
 30
0.0
 11
255.93247753031
 21
70.019999999999996
 31
0.0
  0
LINE
  5
2E5
  8
PATTERN_FILL
  6
CONTINUOUS
 62
     7
 10
252.0
 20
68.0
 30
0.0
 11
255.93247753031
 21
68.0
 31
0.0
  0
LINE
  5
2E6
  8
PATTERN_FILL
  6
CONTINUOUS
 62
     7
 10
252.0
 20
66.019999999999996
 30
0.0
 11
255.93247753031
 21
66.019999999999996
 31
0.0
  0
LINE
  5
2E7
  8
PATTERN_FILL
  6
CONTINUOUS
 62
     7
 10
255.93247753031
 20
68.0
 30
0.0
 11
255.93247753031
 21
66.019999999999996
 31
0.0
  0
LINE
  5
2E8
  8
PATTERN_FILL
  6
CONTINUOUS
 62
     7
 10
252.0
 20
64.0
 30
0.0
 11
255.93247753031
 21
64.0
 31
0.0
  0
LINE
  5
2E9
  8
PATTERN_FILL
  6
CONTINUOUS
 62
     7
 10
252.0
 20
62.020000000000003
 30
0.0
 11
255.93247753031
 21
62.020000000000003
 31
0.0
  0
LINE
  5
2EA
  8
PATTERN_FILL
  6
CONTINUOUS
 62
     7
 10
255.93247753031
 20
64.0
 30
0.0
 11
255.93247753031
 21
62.020000000000003
 31
0.0
  0
LINE
  5
2EB
  8
PATTERN_FILL
  6
CONTINUOUS
 62
     7
 10
252.0
 20
60.0
 30
0.0
 11
255.93247753031
 21
60.0
 31
0.0
  0
LINE
  5
2EC
  8
PATTERN_FILL
  6
CONTINUOUS
 62
     7
 10
252.0
 20
58.020000000000003
 30
0.0
 11
255.93247753031
 21
58.020000000000003
 31
0.0
  0
LINE
  5
2ED
  8
PATTERN_FILL
  6
CONTINUOUS
 62
     7
 10
255.93247753031
 20
60.0
 30
0.0
 11
255.93247753031
 21
58.020000000000003
 31
0.0
  0
LINE
  5
2EE
  8
PATTERN_FILL
  6
CONTINUOUS
 62
     7
 10
252.0
 20
56.0
 30
0.0
 11
255.93247753031
 21
56.0
 31
0.0
  0
LINE
  5
2EF
  8
PATTERN_FILL
  6
CONTINUOUS
 62
     7
 10
252.0
 20
54.02000000000001
 30
0.0
 11
255.93247753031
 21
54.02000000000001
 31
0.0
  0
LINE
  5
2F0
  8
PATTERN_FILL
  6
CONTINUOUS
 62
     7
 10
255.93247753031
 20
56.0
 30
0.0
 11
255.93247753031
 21
54.02000000000001
 31
0.0
  0
LINE
  5
2F1
  8
PATTERN_FILL
  6
CONTINUOUS
 62
     7
 10
252.0
 20
52.0
 30
0.0
 11
255.93247753031
 21
52.0
 31
0.0
  0
LINE
  5
2F2
  8
PATTERN_FILL
  6
CONTINUOUS
 62
     7
 10
252.0
 20
50.020000000000003
 30
0.0
 11
255.93247753031
 21
50.020000000000003
 31
0.0
  0
LINE
  5
2F3
  8
PATTERN_FILL
  6
CONTINUOUS
 62
     7
 10
255.93247753031
 20
52.0
 30
0.0
 11
255.93247753031
 21
50.020000000000003
 31
0.0
  0
LINE
  5
2F4
  8
PATTERN_FILL
  6
CONTINUOUS
 62
     7
 10
252.0
 20
48.0
 30
0.0
 11
255.93247753031
 21
48.0
 31
0.0
  0
LINE
  5
2F5
  8
PATTERN_FILL
  6
CONTINUOUS
 62
     7
 10
252.0
 20
46.020000000000003
 30
0.0
 11
255.93247753031
 21
46.020000000000003
 31
0.0
  0
LINE
  5
2F6
  8
PATTERN_FILL
  6
CONTINUOUS
 62
     7
 10
255.93247753031
 20
48.0
 30
0.0
 11
255.93247753031
 21
46.020000000000003
 31
0.0
  0
LINE
  5
2F7
  8
PATTERN_FILL
  6
CONTINUOUS
 62
     7
 10
252.0
 20
44.0
 30
0.0
 11
255.93247753031
 21
44.0
 31
0.0
  0
LINE
  5
2F8
  8
PATTERN_FILL
  6
CONTINUOUS
 62
     7
 10
252.0
 20
42.020000000000003
 30
0.0
 11
255.93247753031
 21
42.020000000000003
 31
0.0
  0
LINE
  5
2F9
  8
PATTERN_FILL
  6
CONTINUOUS
 62
     7
 10
255.93247753031
 20
44.0
 30
0.0
 11
255.93247753031
 21
42.020000000000003
 31
0.0
  0
LINE
  5
2FA
  8
PATTERN_FILL
  6
CONTINUOUS
 62
     7
 10
252.0
 20
40.0
 30
0.0
 11
255.93247753031
 21
40.0
 31
0.0
  0
LINE
  5
2FB
  8
PATTERN_FILL
  6
CONTINUOUS
 62
     7
 10
252.0
 20
38.02000000000001
 30
0.0
 11
255.93247753031
 21
38.02000000000001
 31
0.0
  0
LINE
  5
2FC
  8
PATTERN_FILL
  6
CONTINUOUS
 62
     7
 10
255.93247753031
 20
40.0
 30
0.0
 11
255.93247753031
 21
38.02000000000001
 31
0.0
  0
LINE
  5
2FD
  8
PATTERN_FILL
  6
CONTINUOUS
 62
     7
 10
252.0
 20
36.0
 30
0.0
 11
255.93247753031
 21
36.0
 31
0.0
  0
LINE
  5
2FE
  8
PATTERN_FILL
  6
CONTINUOUS
 62
     7
 10
252.0
 20
34.02000000000001
 30
0.0
 11
255.93247753031
 21
34.02000000000001
 31
0.0
  0
LINE
  5
2FF
  8
PATTERN_FILL
  6
CONTINUOUS
 62
     7
 10
255.93247753031
 20
36.0
 30
0.0
 11
255.93247753031
 21
34.02000000000001
 31
0.0
  0
LINE
  5
300
  8
PATTERN_FILL
  6
CONTINUOUS
 62
     7
 10
252.0
 20
32.0
 30
0.0
 11
255.93247753031
 21
32.0
 31
0.0
  0
LINE
  5
301
  8
PATTERN_FILL
  6
CONTINUOUS
 62
     7
 10
252.0
 20
30.02
 30
0.0
 11
255.93247753031
 21
30.02
 31
0.0
  0
LINE
  5
302
  8
PATTERN_FILL
  6
CONTINUOUS
 62
     7
 10
255.93247753031
 20
32.0
 30
0.0
 11
255.93247753031
 21
30.02
 31
0.0
  0
LINE
  5
303
  8
PATTERN_FILL
  6
CONTINUOUS
 62
     7
 10
252.0
 20
28.0
 30
0.0
 11
255.93247753031
 21
28.0
 31
0.0
  0
LINE
  5
304
  8
PATTERN_FILL
  6
CONTINUOUS
 62
     7
 10
252.0
 20
26.02
 30
0.0
 11
255.93247753031
 21
26.02
 31
0.0
  0
LINE
  5
305
  8
PATTERN_FILL
  6
CONTINUOUS
 62
     7
 10
255.93247753031
 20
28.0
 30
0.0
 11
255.93247753031
 21
26.02
 31
0.0
  0
LINE
  5
306
  8
PATTERN_FILL
  6
CONTINUOUS
 62
     7
 10
252.0
 20
24.0
 30
0.0
 11
255.93247753031
 21
24.0
 31
0.0
  0
LINE
  5
307
  8
PATTERN_FILL
  6
CONTINUOUS
 62
     7
 10
252.0
 20
22.019999999999989
 30
0.0
 11
255.93247753031
 21
22.019999999999989
 31
0.0
  0
LINE
  5
308
  8
PATTERN_FILL
  6
CONTINUOUS
 62
     7
 10
255.93247753031
 20
24.0
 30
0.0
 11
255.93247753031
 21
22.019999999999989
 31
0.0
  0
LINE
  5
309
  8
PATTERN_FILL
  6
CONTINUOUS
 62
     7
 10
252.0
 20
20.0
 30
0.0
 11
255.93247753031
 21
20.0
 31
0.0
  0
LINE
  5
30A
  8
PATTERN_FILL
  6
CONTINUOUS
 62
     7
 10
252.0
 20
18.019999999999978
 30
0.0
 11
255.93247753031
 21
18.019999999999978
 31
0.0
  0
LINE
  5
30B
  8
PATTERN_FILL
  6
CONTINUOUS
 62
     7
 10
255.93247753031
 20
20.0
 30
0.0
 11
255.93247753031
 21
18.019999999999978
 31
0.0
  0
LINE
  5
30C
  8
PATTERN_FILL
  6
CONTINUOUS
 62
     7
 10
252.0
 20
16.0
 30
0.0
 11
255.93247753031
 21
16.0
 31
0.0
  0
LINE
  5
30D
  8
PATTERN_FILL
  6
CONTINUOUS
 62
     7
 10
252.0
 20
14.01999999999998
 30
0.0
 11
255.93247753031
 21
14.01999999999998
 31
0.0
  0
LINE
  5
30E
  8
PATTERN_FILL
  6
CONTINUOUS
 62
     7
 10
255.93247753031
 20
16.0
 30
0.0
 11
255.93247753031
 21
14.01999999999998
 31
0.0
  0
LINE
  5
30F
  8
PATTERN_FILL
  6
CONTINUOUS
 62
     7
 10
252.0
 20
12.0
 30
0.0
 11
255.93247753031
 21
12.0
 31
0.0
  0
LINE
  5
310
  8
PATTERN_FILL
  6
CONTINUOUS
 62
     7
 10
252.0
 20
10.01999999999998
 30
0.0
 11
255.93247753031
 21
10.01999999999998
 31
0.0
  0
LINE
  5
311
  8
PATTERN_FILL
  6
CONTINUOUS
 62
     7
 10
255.93247753031
 20
12.0
 30
0.0
 11
255.93247753031
 21
10.01999999999998
 31
0.0
  0
LINE
  5
312
  8
PATTERN_FILL
  6
CONTINUOUS
 62
     7
 10
252.0
 20
8.0
 30
0.0
 11
255.93247753031
 21
8.0
 31
0.0
  0
LINE
  5
313
  8
PATTERN_FILL
  6
CONTINUOUS
 62
     7
 10
252.0
 20
6.0199999999999809
 30
0.0
 11
255.93247753031
 21
6.0199999999999809
 31
0.0
  0
LINE
  5
314
  8
PATTERN_FILL
  6
CONTINUOUS
 62
     7
 10
255.93247753031
 20
8.0
 30
0.0
 11
255.93247753031
 21
6.0199999999999809
 31
0.0
  0
LINE
  5
315
  8
PATTERN_FILL
  6
CONTINUOUS
 62
     7
 10
252.0
 20
4.0
 30
0.0
 11
255.93247753031
 21
4.0
 31
0.0
  0
LINE
  5
316
  8
PATTERN_FILL
  6
CONTINUOUS
 62
     7
 10
252.0
 20
2.0199999999999809
 30
0.0
 11
255.93247753031
 21
2.0199999999999809
 31
0.0
  0
LINE
  5
317
  8
PATTERN_FILL
  6
CONTINUOUS
 62
     7
 10
255.93247753031
 20
4.0
 30
0.0
 11
255.93247753031
 21
2.0199999999999809
 31
0.0
  0
LINE
  5
318
  8
PATTERN_FILL
  6
CONTINUOUS
 62
     7
 10
252.0
 20
0.0
 30
0.0
 11
255.93247753031
 21
0.0
 31
0.0
  0
LINE
  5
319
  8
PATTERN_FILL
  6
CONTINUOUS
 62
     7
 10
252.0
 20
-1.980000000000018
 30
0.0
 11
255.93247753031
 21
-1.980000000000018
 31
0.0
  0
LINE
  5
31A
  8
PATTERN_FILL
  6
CONTINUOUS
 62
     7
 10
255.93247753031
 20
0.0
 30
0.0
 11
255.93247753031
 21
-1.980000000000018
 31
0.0
  0
ARC
  5
31B
  8
PATTERN_FILL
  6
CONTINUOUS
 62
     7
 10
174.99999999999989
 20
187.4999999999998
 30
0.0
 40
8.8399999999999377
 50
314.63977295860371
 51
322.83787814355998
  0
ARC
  5
31C
  8
PATTERN_FILL
  6
CONTINUOUS
 62
     7
 10
174.99999999999989
 20
187.4999999999998
 30
0.0
 40
8.839999999999943
 50
330.22427023892658
 51
337.09898484264249
  0
ARC
  5
31D
  8
PATTERN_FILL
  6
CONTINUOUS
 62
     7
 10
174.99999999999989
 20
187.4999999999998
 30
0.0
 40
8.8399999999999483
 50
343.63984787679573
 51
349.96741966811118
  0
ARC
  5
31E
  8
PATTERN_FILL
  6
CONTINUOUS
 62
     7
 10
174.99999999999989
 20
187.4999999999998
 30
0.0
 40
8.8399999999999395
 50
356.1731156768721
 51
2.3339577137835481
  0
ARC
  5
31F
  8
PATTERN_FILL
  6
CONTINUOUS
 62
     7
 10
174.99999999999989
 20
187.4999999999998
 30
0.0
 40
8.8399999999999341
 50
8.5220515738444025
 51
14.812466135785851
  0
ARC
  5
320
  8
PATTERN_FILL
  6
CONTINUOUS
 62
     7
 10
174.99999999999989
 20
187.4999999999998
 30
0.0
 40
8.8399999999999288
 50
21.29206356241248
 51
28.072486935854251
  0
ARC
  5
321
  8
PATTERN_FILL
  6
CONTINUOUS
 62
     7
 10
174.99999999999989
 20
187.4999999999998
 30
0.0
 40
8.8399999999999341
 50
35.313808415079691
 51
43.276544421852762
  0
ARC
  5
322
  8
PATTERN_FILL
  6
CONTINUOUS
 62
     7
 10
174.99999999999989
 20
187.4999999999998
 30
0.0
 40
8.839999999999927
 50
52.465480024799511
 51
127.53451997520069
  0
ARC
  5
323
  8
PATTERN_FILL
  6
CONTINUOUS
 62
     7
 10
174.99999999999989
 20
187.4999999999998
 30
0.0
 40
8.8399999999999128
 50
136.7234555781489
 51
144.68619158492021
  0
ARC
  5
324
  8
PATTERN_FILL
  6
CONTINUOUS
 62
     7
 10
174.99999999999989
 20
187.4999999999998
 30
0.0
 40
8.8399999999999253
 50
151.9275130641457
 51
158.70793643758751
  0
ARC
  5
325
  8
PATTERN_FILL
  6
CONTINUOUS
 62
     7
 10
174.99999999999989
 20
187.4999999999998
 30
0.0
 40
8.839999999999927
 50
165.18753386421429
 51
171.47794842615559
  0
ARC
  5
326
  8
PATTERN_FILL
  6
CONTINUOUS
 62
     7
 10
174.99999999999989
 20
187.4999999999998
 30
0.0
 40
8.8399999999999164
 50
177.6660422862164
 51
183.82688432312801
  0
ARC
  5
327
  8
PATTERN_FILL
  6
CONTINUOUS
 62
     7
 10
174.99999999999989
 20
187.4999999999998
 30
0.0
 40
8.8399999999999217
 50
190.0325803318886
 51
196.36015212320419
  0
ARC
  5
328
  8
PATTERN_FILL
  6
CONTINUOUS
 62
     7
 10
174.99999999999989
 20
187.4999999999998
 30
0.0
 40
8.8399999999999341
 50
202.90101515735711
 51
209.77572976107211
  0
ARC
  5
329
  8
PATTERN_FILL
  6
CONTINUOUS
 62
     7
 10
174.99999999999989
 20
187.4999999999998
 30
0.0
 40
8.839999999999927
 50
217.1621218564388
 51
225.3602270413962
  0
ARC
  5
32A
  8
PATTERN_FILL
  6
CONTINUOUS
 62
     7
 10
174.99999999999989
 20
187.4999999999998
 30
0.0
 40
8.839999999999927
 50
234.98526667593759
 51
305.01473332406221
  0
LINE
  5
32B
  8
PATTERN_FILL
  6
CONTINUOUS
 62
     7
 10
169.9277224050727
 20
180.25999999999999
 30
0.0
 11
180.07227759492719
 21
180.25999999999999
 31
0.0
  0
LINE
  5
32C
  8
PATTERN_FILL
  6
CONTINUOUS
 62
     7
 10
168.78859919180869
 20
181.21000000000001
 30
0.0
 11
181.2114008081912
 21
181.21000000000001
 31
0.0
  0
LINE
  5
32D
  8
PATTERN_FILL
  6
CONTINUOUS
 62
     7
 10
167.95514372041561
 20
182.16
 30
0.0
 11
182.04485627958439
 21
182.16
 31
0.0
  0
LINE
  5
32E
  8
PATTERN_FILL
  6
CONTINUOUS
 62
     7
 10
167.3270931192931
 20
183.11000000000001
 30
0.0
 11
182.67290688070679
 21
183.11000000000001
 31
0.0
  0
LINE
  5
32F
  8
PATTERN_FILL
  6
CONTINUOUS
 62
     7
 10
166.8567819628847
 20
184.06
 30
0.0
 11
183.14321803711519
 21
184.06
 31
0.0
  0
LINE
  5
330
  8
PATTERN_FILL
  6
CONTINUOUS
 62
     7
 10
166.5179306770107
 20
185.00999999999999
 30
0.0
 11
183.48206932298919
 21
185.00999999999999
 31
0.0
  0
LINE
  5
331
  8
PATTERN_FILL
  6
CONTINUOUS
 62
     7
 10
166.295173752452
 20
185.96000000000001
 30
0.0
 11
183.70482624754791
 21
185.96000000000001
 31
0.0
  0
LINE
  5
332
  8
PATTERN_FILL
  6
CONTINUOUS
 62
     7
 10
166.17971088909209
 20
186.91
 30
0.0
 11
183.82028911090779
 21
186.91
 31
0.0
  0
LINE
  5
333
  8
PATTERN_FILL
  6
CONTINUOUS
 62
     7
 10
166.1673333584925
 20
187.86000000000001
 30
0.0
 11
183.83266664150739
 21
187.86000000000001
 31
0.0
  0
LINE
  5
334
  8
PATTERN_FILL
  6
CONTINUOUS
 62
     7
 10
166.25760330344161
 20
188.81
 30
0.0
 11
183.74239669655839
 21
188.81
 31
0.0
  0
LINE
  5
335
  8
PATTERN_FILL
  6
CONTINUOUS
 62
     7
 10
166.45377276220671
 20
189.75999999999999
 30
0.0
 11
183.5462272377932
 21
189.75999999999999
 31
0.0
  0
LINE
  5
336
  8
PATTERN_FILL
  6
CONTINUOUS
 62
     7
 10
166.76340482966421
 20
190.71000000000001
 30
0.0
 11
183.2365951703357
 21
190.71000000000001
 31
0.0
  0
LINE
  5
337
  8
PATTERN_FILL
  6
CONTINUOUS
 62
     7
 10
167.19999999999999
 20
191.66
 30
0.0
 11
182.80000000000001
 21
191.66
 31
0.0
  0
LINE
  5
338
  8
PATTERN_FILL
  6
CONTINUOUS
 62
     7
 10
167.78657501598599
 20
192.61000000000001
 30
0.0
 11
182.2134249840139
 21
192.61000000000001
 31
0.0
  0
LINE
  5
339
  8
PATTERN_FILL
  6
CONTINUOUS
 62
     7
 10
168.56400745805271
 20
193.56
 30
0.0
 11
181.4359925419472
 21
193.56
 31
0.0
  0
LINE
  5
33A
  8
PATTERN_FILL
  6
CONTINUOUS
 62
     7
 10
169.61432455489569
 20
194.50999999999999
 30
0.0
 11
180.3856754451042
 21
194.50999999999999
 31
0.0
  0
LINE
  5
33B
  8
PATTERN_FILL
  6
CONTINUOUS
 62
     7
 10
171.15500325097651
 20
195.46000000000001
 30
0.0
 11
178.8449967490233
 21
195.46000000000001
 31
0.0
  0
ARC
  5
33C
  8
PATTERN_FILL
  6
CONTINUOUS
 62
     7
 10
-50.000000000000099
 20
324.99999999999977
 30
0.0
 40
8.8399999999999377
 50
314.63977295860371
 51
322.83787814355998
  0
ARC
  5
33D
  8
PATTERN_FILL
  6
CONTINUOUS
 62
     7
 10
-50.000000000000099
 20
324.99999999999977
 30
0.0
 40
8.839999999999943
 50
330.22427023892658
 51
337.09898484264249
  0
ARC
  5
33E
  8
PATTERN_FILL
  6
CONTINUOUS
 62
     7
 10
-50.000000000000099
 20
324.99999999999977
 30
0.0
 40
8.8399999999999483
 50
343.63984787679573
 51
349.96741966811118
  0
ARC
  5
33F
  8
PATTERN_FILL
  6
CONTINUOUS
 62
     7
 10
-50.000000000000099
 20
324.99999999999977
 30
0.0
 40
8.8399999999999395
 50
356.1731156768721
 51
2.3339577137835481
  0
ARC
  5
340
  8
PATTERN_FILL
  6
CONTINUOUS
 62
     7
 10
-50.000000000000099
 20
324.99999999999977
 30
0.0
 40
8.8399999999999341
 50
8.5220515738444025
 51
14.812466135785851
  0
ARC
  5
341
  8
PATTERN_FILL
  6
CONTINUOUS
 62
     7
 10
-50.000000000000099
 20
324.99999999999977
 30
0.0
 40
8.8399999999999288
 50
21.29206356241248
 51
28.072486935854251
  0
ARC
  5
342
  8
PATTERN_FILL
  6
CONTINUOUS
 62
     7
 10
-50.000000000000099
 20
324.99999999999977
 30
0.0
 40
8.8399999999999341
 50
35.313808415079691
 51
43.276544421852762
  0
ARC
  5
343
  8
PATTERN_FILL
  6
CONTINUOUS
 62
     7
 10
-50.000000000000099
 20
324.99999999999977
 30
0.0
 40
8.839999999999927
 50
52.465480024799511
 51
127.53451997520069
  0
ARC
  5
344
  8
PATTERN_FILL
  6
CONTINUOUS
 62
     7
 10
-50.000000000000099
 20
324.99999999999977
 30
0.0
 40
8.8399999999999128
 50
136.7234555781489
 51
144.68619158492021
  0
ARC
  5
345
  8
PATTERN_FILL
  6
CONTINUOUS
 62
     7
 10
-50.000000000000099
 20
324.99999999999977
 30
0.0
 40
8.8399999999999253
 50
151.9275130641457
 51
158.70793643758751
  0
ARC
  5
346
  8
PATTERN_FILL
  6
CONTINUOUS
 62
     7
 10
-50.000000000000099
 20
324.99999999999977
 30
0.0
 40
8.839999999999927
 50
165.18753386421429
 51
171.47794842615559
  0
ARC
  5
347
  8
PATTERN_FILL
  6
CONTINUOUS
 62
     7
 10
-50.000000000000099
 20
324.99999999999977
 30
0.0
 40
8.8399999999999164
 50
177.6660422862164
 51
183.82688432312801
  0
ARC
  5
348
  8
PATTERN_FILL
  6
CONTINUOUS
 62
     7
 10
-50.000000000000099
 20
324.99999999999977
 30
0.0
 40
8.8399999999999217
 50
190.0325803318886
 51
196.36015212320419
  0
ARC
  5
349
  8
PATTERN_FILL
  6
CONTINUOUS
 62
     7
 10
-50.000000000000099
 20
324.99999999999977
 30
0.0
 40
8.8399999999999341
 50
202.90101515735711
 51
209.77572976107211
  0
ARC
  5
34A
  8
PATTERN_FILL
  6
CONTINUOUS
 62
     7
 10
-50.000000000000099
 20
324.99999999999977
 30
0.0
 40
8.839999999999927
 50
217.1621218564388
 51
225.3602270413962
  0
ARC
  5
34B
  8
PATTERN_FILL
  6
CONTINUOUS
 62
     7
 10
-50.000000000000099
 20
324.99999999999977
 30
0.0
 40
8.839999999999927
 50
234.98526667593759
 51
305.01473332406221
  0
LINE
  5
34C
  8
PATTERN_FILL
  6
CONTINUOUS
 62
     7
 10
-55.072277594927208
 20
317.75999999999999
 30
0.0
 11
-44.927722405072792
 21
317.75999999999999
 31
0.0
  0
LINE
  5
34D
  8
PATTERN_FILL
  6
CONTINUOUS
 62
     7
 10
-56.211400808191222
 20
318.70999999999998
 30
0.0
 11
-43.788599191808807
 21
318.70999999999998
 31
0.0
  0
LINE
  5
34E
  8
PATTERN_FILL
  6
CONTINUOUS
 62
     7
 10
-57.04485627958438
 20
319.66000000000003
 30
0.0
 11
-42.955143720415649
 21
319.66000000000003
 31
0.0
  0
LINE
  5
34F
  8
PATTERN_FILL
  6
CONTINUOUS
 62
     7
 10
-57.672906880706918
 20
320.61000000000001
 30
0.0
 11
-42.327093119293131
 21
320.61000000000001
 31
0.0
  0
LINE
  5
350
  8
PATTERN_FILL
  6
CONTINUOUS
 62
     7
 10
-58.143218037115197
 20
321.55999999999989
 30
0.0
 11
-41.856781962884853
 21
321.55999999999989
 31
0.0
  0
LINE
  5
351
  8
PATTERN_FILL
  6
CONTINUOUS
 62
     7
 10
-58.482069322989247
 20
322.50999999999999
 30
0.0
 11
-41.517930677010789
 21
322.50999999999999
 31
0.0
  0
LINE
  5
352
  8
PATTERN_FILL
  6
CONTINUOUS
 62
     7
 10
-58.704826247547999
 20
323.45999999999998
 30
0.0
 11
-41.295173752452051
 21
323.45999999999998
 31
0.0
  0
LINE
  5
353
  8
PATTERN_FILL
  6
CONTINUOUS
 62
     7
 10
-58.820289110907851
 20
324.41000000000003
 30
0.0
 11
-41.179710889092149
 21
324.41000000000003
 31
0.0
  0
LINE
  5
354
  8
PATTERN_FILL
  6
CONTINUOUS
 62
     7
 10
-58.832666641507423
 20
325.36000000000001
 30
0.0
 11
-41.167333358492627
 21
325.36000000000001
 31
0.0
  0
LINE
  5
355
  8
PATTERN_FILL
  6
CONTINUOUS
 62
     7
 10
-58.742396696558373
 20
326.31
 30
0.0
 11
-41.257603303441677
 21
326.31
 31
0.0
  0
LINE
  5
356
  8
PATTERN_FILL
  6
CONTINUOUS
 62
     7
 10
-58.546227237793282
 20
327.25999999999999
 30
0.0
 11
-41.453772762206739
 21
327.25999999999999
 31
0.0
  0
LINE
  5
357
  8
PATTERN_FILL
  6
CONTINUOUS
 62
     7
 10
-58.236595170335761
 20
328.20999999999998
 30
0.0
 11
-41.763404829664282
 21
328.20999999999998
 31
0.0
  0
LINE
  5
358
  8
PATTERN_FILL
  6
CONTINUOUS
 62
     7
 10
-57.800000000000018
 20
329.16000000000003
 30
0.0
 11
-42.200000000000003
 21
329.16000000000003
 31
0.0
  0
LINE
  5
359
  8
PATTERN_FILL
  6
CONTINUOUS
 62
     7
 10
-57.21342498401394
 20
330.11000000000001
 30
0.0
 11
-42.786575015986109
 21
330.11000000000001
 31
0.0
  0
LINE
  5
35A
  8
PATTERN_FILL
  6
CONTINUOUS
 62
     7
 10
-56.435992541947272
 20
331.05999999999989
 30
0.0
 11
-43.564007458052778
 21
331.05999999999989
 31
0.0
  0
LINE
  5
35B
  8
PATTERN_FILL
  6
CONTINUOUS
 62
     7
 10
-55.385675445104248
 20
332.00999999999999
 30
0.0
 11
-44.614324554895752
 21
332.00999999999999
 31
0.0
  0
LINE
  5
35C
  8
PATTERN_FILL
  6
CONTINUOUS
 62
     7
 10
-53.844996749023409
 20
332.95999999999998
 30
0.0
 11
-46.155003250976613
 21
332.95999999999998
 31
0.0
  0
LINE
  5
35D
  8
SPEC
  6
CONTINUOUS
 62
     7
 10
-147.49999999999989
 20
507.06362999999988
 30
0.0
 11
295.0
 21
507.06362999999988
 31
0.0
  0
LINE
  5
35E
  8
SPEC
  6
CONTINUOUS
 62
     7
 10
-147.49999999999989
 20
495.81362999999988
 30
0.0
 11
295.0
 21
495.81362999999988
 31
0.0
  0
LINE
  5
35F
  8
SPEC
  6
CONTINUOUS
 62
     7
 10
-147.49999999999989
 20
450.81362999999988
 30
0.0
 11
295.0
 21
450.81362999999988
 31
0.0
  0
LINE
  5
360
  8
SPEC
  6
CONTINUOUS
 62
     7
 10
-147.49999999999989
 20
462.06362999999988
 30
0.0
 11
295.0
 21
462.06362999999988
 31
0.0
  0
LINE
  5
361
  8
SPEC
  6
CONTINUOUS
 62
     7
 10
-147.49999999999989
 20
473.31362999999988
 30
0.0
 11
295.0
 21
473.31362999999988
 31
0.0
  0
LINE
  5
362
  8
SPEC
  6
CONTINUOUS
 62
     7
 10
-147.49999999999989
 20
439.56362999999988
 30
0.0
 11
295.0
 21
439.56362999999988
 31
0.0
  0
LINE
  5
363
  8
SPEC
  6
CONTINUOUS
 62
     7
 10
-147.49999999999989
 20
484.56362999999988
 30
0.0
 11
295.0
 21
484.56362999999988
 31
0.0
  0
LINE
  5
364
  8
SPEC
  6
CONTINUOUS
 62
     7
 10
-147.49999999999989
 20
507.06362999999988
 30
0.0
 11
-147.49999999999989
 21
405.79362999999989
 31
0.0
  0
TEXT
  5
365
  8
SPEC
 62
     7
 10
-143.74999999999989
 20
513.06377333333307
 30
0.0
 40
5.7009440104166647
  1
仕様
 41
0.7
 11
-143.74999999999989
 21
518.76471734374991
 31
0.0
 73
     3
  0
LINE
  5
366
  8
SPEC
  6
CONTINUOUS
 62
     7
 10
-50.0
 20
507.06362999999988
 30
0.0
 11
-50.0
 21
405.79362999999989
 31
0.0
  0
LINE
  5
367
  8
SPEC
  6
CONTINUOUS
 62
     7
 10
295.0
 20
507.06362999999988
 30
0.0
 11
295.0
 21
405.79362999999989
 31
0.0
  0
TEXT
  5
368
  8
SPEC
 62
     7
 10
-144.94285464602561
 20
498.67737459442299
 30
0.0
 40
5.7009440104166647
  1
形式
 41
0.7
 11
-144.94285464602561
 21
504.37831860483971
 31
0.0
 73
     3
  0
TEXT
  5
369
  8
SPEC
 62
     7
 10
-145.1044233063563
 20
431.43891307808138
 30
0.0
 40
5.7009440104166647
  1
寸法
 41
0.7
 11
-145.1044233063563
 21
437.13985708849822
 31
0.0
 73
     3
  0
TEXT
  5
36A
  8
SPEC
 62
     7
 10
-48.067726718133059
 20
431.44953040996489
 30
0.0
 40
5.7009440104166647
  1
\U+03A621\U+00D7312mm(連結ロング時),\U+03A621\U+00D7170mm(ショート時)
 41
0.7
 11
-48.067726718133059
 21
437.15047442038161
 31
0.0
 73
     3
  0
TEXT
  5
36B
  8
SPEC
 62
     7
 10
-47.437088950441598
 20
420.13450121091847
 30
0.0
 40
5.7009440104166647
  1
約100g(連結ロング時),約65g(シヨート時)
 41
0.7
 11
-47.437088950441598
 21
425.83544522133508
 31
0.0
 73
     3
  0
TEXT
  5
36C
  8
SPEC
 62
     7
 10
-144.95409280080281
 20
420.03419222362749
 30
0.0
 40
5.7009440104166647
  1
重量
 41
0.7
 11
-144.95409280080281
 21
425.73513623404421
 31
0.0
 73
     3
  0
TEXT
  5
36D
  8
SPEC
 62
     7
 10
-48.081026940160783
 20
498.76280471551138
 30
0.0
 40
5.7009440104166647
  1
コンデンサー型 
 41
0.7
 11
-48.081026940160783
 21
504.46374872592799
 31
0.0
 73
     3
  0
TEXT
  5
36E
  8
SPEC
 62
     7
 10
-144.78880351965509
 20
476.5148137866754
 30
0.0
 40
5.7009440104166647
  1
周波数特性
 41
0.7
 11
-144.78880351965509
 21
482.21575779709201
 31
0.0
 73
     3
  0
TEXT
  5
36F
  8
SPEC
 62
     7
 10
-145.0278892999475
 20
465.20740798346651
 30
0.0
 40
5.7009440104166647
  1
開回路感度
 41
0.7
 11
-145.0278892999475
 21
470.90835199388317
 31
0.0
 73
     3
  0
TEXT
  5
370
  8
SPEC
 62
     7
 10
-144.83734206879009
 20
453.8249949195752
 30
0.0
 40
5.7009440104166647
  1
最大音圧レベル
 41
0.7
 11
-144.83734206879009
 21
459.52593892999181
 31
0.0
 73
     3
  0
TEXT
  5
371
  8
SPEC
 62
     7
 10
-144.86255144525549
 20
442.6224633333332
 30
0.0
 40
5.7009440104166647
  1
等価雑音レベル
 41
0.7
 11
-144.86255144525549
 21
448.32340734374992
 31
0.0
 73
     3
  0
LINE
  5
372
  8
SPEC
  6
CONTINUOUS
 62
     7
 10
-147.49999999999989
 20
428.31362999999988
 30
0.0
 11
295.0
 21
428.31362999999988
 31
0.0
  0
TEXT
  5
373
  8
SPEC
 62
     7
 10
-47.333184238265929
 20
475.85406443461869
 30
0.0
 40
5.7009440104166647
  1
20Hz～18kHz
 41
0.7
 11
-47.333184238265929
 21
481.55500844503541
 31
0.0
 73
     3
  0
TEXT
  5
374
  8
SPEC
 62
     7
 10
-47.429152814446823
 20
465.24926685761562
 30
0.0
 40
5.7009440104166647
  1
ー31dBV re 1V/Pa
 41
0.7
 11
-47.429152814446823
 21
470.95021086803229
 31
0.0
 73
     3
  0
TEXT
  5
375
  8
SPEC
 62
     7
 10
-47.640843428985647
 20
453.5771464753621
 30
0.0
 40
5.7009440104166647
  1
140dB SPL（パッドOFF、THD 0.5%%%）
 41
0.7
 11
-47.640843428985647
 21
459.27809048577882
 31
0.0
 73
     3
  0
TEXT
  5
376
  8
SPEC
 62
     7
 10
-47.333802804387808
 20
442.51998755793181
 30
0.0
 40
5.7009440104166647
  1
9dB SPL（Aウェイト）
 41
0.7
 11
-47.333802804387808
 21
448.22093156834848
 31
0.0
 73
     3
  0
LINE
  5
377
  8
SPEC
  6
CONTINUOUS
 62
     7
 10
-147.49999999999989
 20
417.06362999999988
 30
0.0
 11
295.0
 21
417.06362999999988
 31
0.0
  0
TEXT
  5
378
  8
SPEC
 62
     7
 10
-144.86141471440791
 20
408.99713469246649
 30
0.0
 40
5.7009440104166647
  1
付属品
 41
0.7
 11
-144.86141471440791
 21
414.69807870288321
 31
0.0
 73
     3
  0
TEXT
  5
379
  8
SPEC
 62
     7
 10
-47.982248396950453
 20
408.8913224302139
 30
0.0
 40
5.7009440104166647
  1
ウインドスクリーン(W 48、W 49),専用マイクケース
 41
0.7
 11
-47.982248396950453
 21
414.59226644063062
 31
0.0
 73
     3
  0
LINE
  5
37A
  8
SPEC
  6
CONTINUOUS
 62
     7
 10
-147.49999999999989
 20
405.79362999999989
 30
0.0
 11
295.0
 21
405.79362999999989
 31
0.0
  0
TEXT
  5
37B
  8
SPEC
 62
     7
 10
-144.94285464602561
 20
487.407374594423
 30
0.0
 40
5.7009440104166647
  1
指向特性
 41
0.7
 11
-144.94285464602561
 21
493.10831860483972
 31
0.0
 73
     3
  0
TEXT
  5
37C
  8
SPEC
 62
     7
 10
-48.081026940160783
 20
487.4928047155114
 30
0.0
 40
5.7009440104166647
  1
超指向性
 41
0.7
 11
-48.081026940160783
 21
493.193748725928
 31
0.0
 73
     3
  0
TEXT
  5
37D
  8
DIMNSIONS
 62
     7
 10
40.0
 20
-206.12790000000001
 30
0.0
 40
7.3297851562499989
  1
(単位：mm)
 41
0.7
 11
40.0
 21
-198.79811484375
 31
0.0
 73
     3
  0
LINE
  5
37E
  8
DIMNSIONS
  6
CONTINUOUS
 62
     7
 10
-45.366657598645517
 20
-91.172427404435084
 30
0.0
 11
-38.099999999999952
 21
-105.95
 31
0.0
  0
LINE
  5
37F
  8
DIMNSIONS
  6
CONTINUOUS
 62
     7
 10
-45.366657598645517
 20
-91.172427404435084
 30
0.0
 11
-40.169851456703498
 21
-96.944065342817083
 31
0.0
  0
LINE
  5
380
  8
DIMNSIONS
  6
CONTINUOUS
 62
     7
 10
-45.366657598645517
 20
-91.172427404435084
 30
0.0
 11
-43.751910430371751
 21
-98.769215551490987
 31
0.0
  0
LINE
  5
381
  8
DIMNSIONS
  6
CONTINUOUS
 62
     7
 10
-38.099999999999952
 20
-105.95
 30
0.0
 11
-10.933333333333289
 21
-105.95
 31
0.0
  0
TEXT
  5
382
  8
DIMNSIONS
 62
     7
 10
-32.099999999999952
 20
-102.96833333333331
 30
0.0
 40
8.1442057291666661
  1
\U+03C621
 41
0.7
 11
-32.099999999999952
 21
-94.824127604166662
 31
0.0
 73
     3
  0
LINE
  5
383
  8
DIMNSIONS
  6
CONTINUOUS
 62
     7
 10
-65.445000000000007
 20
-37.5
 30
0.0
 11
-106.0
 21
-37.5
 31
0.0
  0
LINE
  5
384
  8
DIMNSIONS
  6
CONTINUOUS
 62
     7
 10
-64.840000000000003
 20
274.5
 30
0.0
 11
-106.0
 21
274.5
 31
0.0
  0
LINE
  5
385
  8
DIMNSIONS
  6
CONTINUOUS
 62
     7
 10
-100.0
 20
-37.5
 30
0.0
 11
-100.0
 21
274.5
 31
0.0
  0
LINE
  5
386
  8
DIMNSIONS
  6
CONTINUOUS
 62
     7
 10
-100.0
 20
-37.5
 30
0.0
 11
-102.01011938545069
 21
-29.998132324218751
 31
0.0
  0
LINE
  5
387
  8
DIMNSIONS
  6
CONTINUOUS
 62
     7
 10
-100.0
 20
-37.5
 30
0.0
 11
-97.989880614549264
 21
-29.998132324218751
 31
0.0
  0
LINE
  5
388
  8
DIMNSIONS
  6
CONTINUOUS
 62
     7
 10
-100.0
 20
274.5
 30
0.0
 11
-97.989880614549264
 21
266.99813232421877
 31
0.0
  0
LINE
  5
389
  8
DIMNSIONS
  6
CONTINUOUS
 62
     7
 10
-100.0
 20
274.5
 30
0.0
 11
-102.01011938545069
 21
266.99813232421877
 31
0.0
  0
TEXT
  5
38A
  8
DIMNSIONS
 62
     7
 10
-102.9816666666666
 20
110.5625
 30
0.0
 40
8.1442057291666661
  1
312
 50
90.0
 41
0.7
 11
-111.1258723958333
 21
110.5625
 31
0.0
 73
     3
  0
LINE
  5
38B
  8
DIMNSIONS
  6
CONTINUOUS
 62
     7
 10
179.6333424013545
 20
-91.172427404435084
 30
0.0
 11
186.90000000000001
 21
-105.95
 31
0.0
  0
LINE
  5
38C
  8
DIMNSIONS
  6
CONTINUOUS
 62
     7
 10
179.6333424013545
 20
-91.172427404435084
 30
0.0
 11
184.83014854329639
 21
-96.944065342817083
 31
0.0
  0
LINE
  5
38D
  8
DIMNSIONS
  6
CONTINUOUS
 62
     7
 10
179.6333424013545
 20
-91.172427404435084
 30
0.0
 11
181.24808956962821
 21
-98.769215551490987
 31
0.0
  0
LINE
  5
38E
  8
DIMNSIONS
  6
CONTINUOUS
 62
     7
 10
186.90000000000001
 20
-105.95
 30
0.0
 11
214.06666666666669
 21
-105.95
 31
0.0
  0
TEXT
  5
38F
  8
DIMNSIONS
 62
     7
 10
192.90000000000001
 20
-102.96833333333331
 30
0.0
 40
8.1442057291666661
  1
\U+03C621
 41
0.7
 11
192.90000000000001
 21
-94.824127604166662
 31
0.0
 73
     3
  0
LINE
  5
390
  8
DIMNSIONS
  6
CONTINUOUS
 62
     7
 10
159.55500000000001
 20
-37.5
 30
0.0
 11
119.0
 21
-37.5
 31
0.0
  0
LINE
  5
391
  8
DIMNSIONS
  6
CONTINUOUS
 62
     7
 10
160.15999999999991
 20
132.5
 30
0.0
 11
119.0
 21
132.5
 31
0.0
  0
LINE
  5
392
  8
DIMNSIONS
  6
CONTINUOUS
 62
     7
 10
125.0
 20
-37.5
 30
0.0
 11
125.0
 21
132.5
 31
0.0
  0
LINE
  5
393
  8
DIMNSIONS
  6
CONTINUOUS
 62
     7
 10
125.0
 20
-37.5
 30
0.0
 11
122.98988061454919
 21
-29.998132324218751
 31
0.0
  0
LINE
  5
394
  8
DIMNSIONS
  6
CONTINUOUS
 62
     7
 10
125.0
 20
-37.5
 30
0.0
 11
127.01011938545069
 21
-29.998132324218751
 31
0.0
  0
LINE
  5
395
  8
DIMNSIONS
  6
CONTINUOUS
 62
     7
 10
125.0
 20
132.5
 30
0.0
 11
127.01011938545069
 21
124.9981323242187
 31
0.0
  0
LINE
  5
396
  8
DIMNSIONS
  6
CONTINUOUS
 62
     7
 10
125.0
 20
132.5
 30
0.0
 11
122.98988061454919
 21
124.9981323242187
 31
0.0
  0
TEXT
  5
397
  8
DIMNSIONS
 62
     7
 10
122.0183333333333
 20
39.5625
 30
0.0
 40
8.1442057291666661
  1
170
 50
90.0
 41
0.7
 11
113.8741276041666
 21
39.5625
 31
0.0
 73
     3
  0
TEXT
  5
398
  8
DATA
 62
     7
 10
250.0
 20
-209.5437
 30
0.0
 40
7.3297851562499989
  1
CK69-ULS
 41
0.7
 11
250.0
 21
-202.21391484374999
 31
0.0
 73
     3
  0
TEXT
  5
399
  8
DATA
 62
     7
 10
250.0
 20
-187.7937
 30
0.0
 40
7.3297851562499989
  1
AKG
 41
0.7
 11
250.0
 21
-180.46391484374999
 31
0.0
 73
     3
  0
TEXT
  5
39A
  8
DATA
 62
     7
 10
242.5
 20
-198.03414175600409
 30
0.0
 40
4.8865311328124994
  1
カートリッジ
 41
0.7
 11
242.5
 21
-193.1476106231917
 31
0.0
 73
     3
  0
TEXT
  5
39B
  8
DATA
 62
     7
 10
-139.99999999999989
 20
-230.22237000000001
 30
0.0
 40
4.8865234374999993
  1
仕様および外観は予告なく変更されることがありますので、ご了承ください。
 41
0.7
 11
-139.99999999999989
 21
-225.3358465625
 31
0.0
 73
     3
  0
LINE
  5
39C
  8
DATA
  6
CONTINUOUS
 62
     7
 10
-60.500000000000021
 20
-34.0
 30
0.0
 11
-60.500000000000021
 21
273.5
 31
0.0
  0
LINE
  5
39D
  8
DATA
  6
CONTINUOUS
 62
     7
 10
-59.445000000000007
 20
-37.5
 30
0.0
 11
-40.555000000000007
 21
-37.5
 31
0.0
  0
LINE
  5
39E
  8
DATA
  6
CONTINUOUS
 62
     7
 10
-39.500000000000007
 20
273.5
 30
0.0
 11
-39.500000000000007
 21
-34.0
 31
0.0
  0
LINE
  5
39F
  8
DATA
  6
CONTINUOUS
 62
     7
 10
-58.840000000000018
 20
274.5
 30
0.0
 11
-41.160000000000011
 21
274.5
 31
0.0
  0
LINE
  5
3A0
  8
DATA
  6
CONTINUOUS
 62
     7
 10
-39.500000000000007
 20
131.5
 30
0.0
 11
-60.500000000000021
 21
131.5
 31
0.0
  0
LINE
  5
3A1
  8
DATA
  6
CONTINUOUS
 62
     7
 10
-60.500000000000021
 20
273.5
 30
0.0
 11
-39.500000000000007
 21
273.5
 31
0.0
  0
LINE
  5
3A2
  8
DATA
  6
CONTINUOUS
 62
     7
 10
-58.840000000000018
 20
274.5
 30
0.0
 11
-58.840000000000018
 21
273.5
 31
0.0
  0
LINE
  5
3A3
  8
DATA
  6
CONTINUOUS
 62
     7
 10
-41.160000000000011
 20
274.5
 30
0.0
 11
-41.160000000000011
 21
273.5
 31
0.0
  0
LINE
  5
3A4
  8
DATA
  6
CONTINUOUS
 62
     7
 10
-39.500000000000007
 20
-34.0
 30
0.0
 11
-60.500000000000021
 21
-34.0
 31
0.0
  0
LINE
  5
3A5
  8
DATA
  6
CONTINUOUS
 62
     7
 10
-59.445000000000007
 20
-37.5
 30
0.0
 11
-59.445000000000007
 21
-34.0
 31
0.0
  0
LINE
  5
3A6
  8
DATA
  6
CONTINUOUS
 62
     7
 10
-40.555000000000007
 20
-37.5
 30
0.0
 11
-40.555000000000007
 21
-34.0
 31
0.0
  0
LINE
  5
3A7
  8
DATA
  6
CONTINUOUS
 62
     7
 10
-39.500000000000007
 20
-12.98000000000002
 30
0.0
 11
-60.500000000000021
 21
-12.98000000000002
 31
0.0
  0
TEXT
  5
3A8
  8
DATA
 62
     7
 10
-56.667816027667619
 20
-32.112382083708077
 30
0.0
 40
2.4432617187500001
  1
CK69-ULS
 41
0.7
 11
-56.667816027667619
 21
-29.669120364958079
 31
0.0
 73
     3
  0
LINE
  5
3A9
  8
DATA
  6
CONTINUOUS
 62
     7
 10
-59.445000000000007
 20
-37.5
 30
0.0
 11
-40.555000000000007
 21
-36.507925519216997
 31
0.0
  0
LINE
  5
3AA
  8
DATA
  6
CONTINUOUS
 62
     7
 10
-59.445000000000007
 20
-36.0
 30
0.0
 11
-40.555000000000007
 21
-35.007925519216997
 31
0.0
  0
LINE
  5
3AB
  8
DATA
  6
CONTINUOUS
 62
     7
 10
-59.445000000000007
 20
-34.5
 30
0.0
 11
-49.924545454545218
 21
-34.0
 31
0.0
  0
CIRCLE
  5
3AC
  8
DATA
  6
CONTINUOUS
 62
     7
 10
-50.000000000000021
 20
-81.75
 30
0.0
 40
10.5
  0
CIRCLE
  5
3AD
  8
DATA
  6
CONTINUOUS
 62
     7
 10
-50.000000000000021
 20
-81.75
 30
0.0
 40
9.4449999999999914
  0
CIRCLE
  5
3AE
  8
DATA
  6
CONTINUOUS
 62
     7
 10
-50.000000000000021
 20
-81.75
 30
0.0
 40
6.9499999999999877
  0
CIRCLE
  5
3AF
  8
DATA
  6
CONTINUOUS
 62
     7
 10
-50.000000000000021
 20
-81.75
 30
0.0
 40
0.4900000000000091
  0
CIRCLE
  5
3B0
  8
DATA
  6
CONTINUOUS
 62
     7
 10
-50.000000000000021
 20
-81.75
 30
0.0
 40
4.0999999999999934
  0
LINE
  5
3B1
  8
DATA
  6
STYLE_05
 62
     7
 10
-73.956449604814452
 20
-16.340430986574351
 30
0.0
 11
-64.06549973927693
 21
275.44259004678349
 31
0.0
  0
LINE
  5
3B2
  8
DATA
  6
STYLE_05
 62
     7
 10
-35.934500260723112
 20
275.44259004678349
 30
0.0
 11
-26.043550395185552
 21
-16.340430986574351
 31
0.0
  0
LINE
  5
3B3
  8
DATA
  6
STYLE_05
 62
     7
 10
-62.066647844997242
 20
277.37483235545199
 30
0.0
 11
-37.933352155002801
 21
277.37483235545199
 31
0.0
  0
LINE
  5
3B4
  8
DATA
  6
STYLE_05
 62
     7
 10
-64.000000000000014
 20
-32.625167644548007
 30
0.0
 11
-73.28694699360652
 21
-18.69474715413827
 31
0.0
  0
LINE
  5
3B5
  8
DATA
  6
STYLE_05
 62
     7
 10
-36.000000000000007
 20
-32.625167644548007
 30
0.0
 11
-26.713053006393519
 21
-18.69474715413827
 31
0.0
  0
LINE
  5
3B6
  8
DATA
  6
STYLE_05
 62
     7
 10
-64.000000000000014
 20
-32.625167644548007
 30
0.0
 11
-36.000000000000007
 21
-32.625167644548007
 31
0.0
  0
CIRCLE
  5
3B7
  8
DATA
  6
STYLE_05
 62
     7
 10
-50.000000000000021
 20
-81.75
 30
0.0
 40
24.0
  0
CIRCLE
  5
3B8
  8
DATA
  6
CONTINUOUS
 62
     7
 10
-50.000000000000021
 20
325.0
 30
0.0
 40
10.5
  0
TEXT
  5
3B9
  8
DATA
 62
     7
 10
-81.908104520454572
 20
-134.87063920912121
 30
0.0
 40
8.1442057291666661
  1
連結ロング時
 41
0.7
 11
-81.908104520454572
 21
-126.72643347995449
 31
0.0
 73
     3
  0
LINE
  5
3BA
  8
DATA
  6
CONTINUOUS
 62
     7
 10
-88.000000000000014
 20
-137.5
 30
0.0
 11
-13.0
 21
-137.5
 31
0.0
  0
CIRCLE
  5
3BB
  8
DATA
  6
STYLE_05
 62
     7
 10
-50.000000000000021
 20
325.0
 30
0.0
 40
14.0
  0
LINE
  5
3BC
  8
DATA
  6
CONTINUOUS
 62
     7
 10
27.249999999999989
 20
-34.0
 30
0.0
 11
27.249999999999989
 21
273.5
 31
0.0
  0
LINE
  5
3BD
  8
DATA
  6
CONTINUOUS
 62
     7
 10
28.305
 20
-37.5
 30
0.0
 11
47.194999999999979
 21
-37.5
 31
0.0
  0
LINE
  5
3BE
  8
DATA
  6
CONTINUOUS
 62
     7
 10
48.249999999999993
 20
273.5
 30
0.0
 11
48.249999999999993
 21
-34.0
 31
0.0
  0
LINE
  5
3BF
  8
DATA
  6
CONTINUOUS
 62
     7
 10
28.909999999999989
 20
274.5
 30
0.0
 11
46.589999999999982
 21
274.5
 31
0.0
  0
LINE
  5
3C0
  8
DATA
  6
CONTINUOUS
 62
     7
 10
48.249999999999993
 20
131.5
 30
0.0
 11
27.249999999999989
 21
131.5
 31
0.0
  0
LINE
  5
3C1
  8
DATA
  6
CONTINUOUS
 62
     7
 10
27.249999999999989
 20
273.5
 30
0.0
 11
48.249999999999993
 21
273.5
 31
0.0
  0
LINE
  5
3C2
  8
DATA
  6
CONTINUOUS
 62
     7
 10
28.909999999999989
 20
274.5
 30
0.0
 11
28.909999999999989
 21
273.5
 31
0.0
  0
LINE
  5
3C3
  8
DATA
  6
CONTINUOUS
 62
     7
 10
46.589999999999982
 20
274.5
 30
0.0
 11
46.589999999999982
 21
273.5
 31
0.0
  0
LINE
  5
3C4
  8
DATA
  6
CONTINUOUS
 62
     7
 10
48.249999999999993
 20
-34.0
 30
0.0
 11
27.249999999999989
 21
-34.0
 31
0.0
  0
LINE
  5
3C5
  8
DATA
  6
CONTINUOUS
 62
     7
 10
28.305
 20
-37.5
 30
0.0
 11
28.305
 21
-34.0
 31
0.0
  0
LINE
  5
3C6
  8
DATA
  6
CONTINUOUS
 62
     7
 10
47.194999999999979
 20
-37.5
 30
0.0
 11
47.194999999999979
 21
-34.0
 31
0.0
  0
LINE
  5
3C7
  8
DATA
  6
CONTINUOUS
 62
     7
 10
48.249999999999993
 20
-12.98000000000002
 30
0.0
 11
27.249999999999989
 21
-12.98000000000002
 31
0.0
  0
LINE
  5
3C8
  8
DATA
  6
CONTINUOUS
 62
     7
 10
28.305
 20
-37.5
 30
0.0
 11
47.194999999999979
 21
-36.507925519216997
 31
0.0
  0
LINE
  5
3C9
  8
DATA
  6
CONTINUOUS
 62
     7
 10
28.305
 20
-36.0
 30
0.0
 11
47.194999999999979
 21
-35.007925519216997
 31
0.0
  0
LINE
  5
3CA
  8
DATA
  6
CONTINUOUS
 62
     7
 10
28.305
 20
-34.5
 30
0.0
 11
37.825454545454768
 21
-34.0
 31
0.0
  0
LINE
  5
3CB
  8
DATA
  6
STYLE_05
 62
     7
 10
13.79355039518553
 20
-16.340430986574351
 30
0.0
 11
23.68450026072308
 21
275.44259004678349
 31
0.0
  0
LINE
  5
3CC
  8
DATA
  6
STYLE_05
 62
     7
 10
51.815499739276902
 20
275.44259004678349
 30
0.0
 11
61.706449604814452
 21
-16.340430986574351
 31
0.0
  0
LINE
  5
3CD
  8
DATA
  6
STYLE_05
 62
     7
 10
25.683352155002751
 20
277.37483235545199
 30
0.0
 11
49.816647844997242
 21
277.37483235545199
 31
0.0
  0
LINE
  5
3CE
  8
DATA
  6
STYLE_05
 62
     7
 10
23.749999999999989
 20
-32.625167644548007
 30
0.0
 11
14.463053006393491
 21
-18.69474715413827
 31
0.0
  0
LINE
  5
3CF
  8
DATA
  6
STYLE_05
 62
     7
 10
51.749999999999993
 20
-32.625167644548007
 30
0.0
 11
61.03694699360647
 21
-18.69474715413827
 31
0.0
  0
LINE
  5
3D0
  8
DATA
  6
STYLE_05
 62
     7
 10
23.749999999999989
 20
-32.625167644548007
 30
0.0
 11
51.749999999999993
 21
-32.625167644548007
 31
0.0
  0
LINE
  5
3D1
  8
DATA
  6
CONTINUOUS
 62
     7
 10
164.5
 20
-34.0
 30
0.0
 11
164.5
 21
131.5
 31
0.0
  0
LINE
  5
3D2
  8
DATA
  6
CONTINUOUS
 62
     7
 10
165.55500000000001
 20
-37.5
 30
0.0
 11
184.44499999999999
 21
-37.5
 31
0.0
  0
LINE
  5
3D3
  8
DATA
  6
CONTINUOUS
 62
     7
 10
185.5
 20
131.5
 30
0.0
 11
185.5
 21
-34.0
 31
0.0
  0
LINE
  5
3D4
  8
DATA
  6
CONTINUOUS
 62
     7
 10
166.15999999999991
 20
132.5
 30
0.0
 11
183.84
 21
132.5
 31
0.0
  0
LINE
  5
3D5
  8
DATA
  6
CONTINUOUS
 62
     7
 10
185.5
 20
-34.0
 30
0.0
 11
164.5
 21
-34.0
 31
0.0
  0
LINE
  5
3D6
  8
DATA
  6
CONTINUOUS
 62
     7
 10
165.55500000000001
 20
-37.5
 30
0.0
 11
165.55500000000001
 21
-34.0
 31
0.0
  0
LINE
  5
3D7
  8
DATA
  6
CONTINUOUS
 62
     7
 10
184.44499999999999
 20
-37.5
 30
0.0
 11
184.44499999999999
 21
-34.0
 31
0.0
  0
LINE
  5
3D8
  8
DATA
  6
CONTINUOUS
 62
     7
 10
185.5
 20
-12.98000000000002
 30
0.0
 11
164.5
 21
-12.98000000000002
 31
0.0
  0
TEXT
  5
3D9
  8
DATA
 62
     7
 10
168.33218397233239
 20
-32.112382083708077
 30
0.0
 40
2.4432617187500001
  1
CK69-ULS
 41
0.7
 11
168.33218397233239
 21
-29.669120364958079
 31
0.0
 73
     3
  0
LINE
  5
3DA
  8
DATA
  6
CONTINUOUS
 62
     7
 10
165.55500000000001
 20
-37.5
 30
0.0
 11
184.44499999999999
 21
-36.507925519216997
 31
0.0
  0
LINE
  5
3DB
  8
DATA
  6
CONTINUOUS
 62
     7
 10
165.55500000000001
 20
-36.0
 30
0.0
 11
184.44499999999999
 21
-35.007925519216997
 31
0.0
  0
LINE
  5
3DC
  8
DATA
  6
CONTINUOUS
 62
     7
 10
165.55500000000001
 20
-34.5
 30
0.0
 11
175.0754545454547
 21
-34.0
 31
0.0
  0
CIRCLE
  5
3DD
  8
DATA
  6
CONTINUOUS
 62
     7
 10
175.0
 20
-81.75
 30
0.0
 40
10.5
  0
CIRCLE
  5
3DE
  8
DATA
  6
CONTINUOUS
 62
     7
 10
175.0
 20
-81.75
 30
0.0
 40
9.4449999999999914
  0
CIRCLE
  5
3DF
  8
DATA
  6
CONTINUOUS
 62
     7
 10
175.0
 20
-81.75
 30
0.0
 40
6.9499999999999877
  0
CIRCLE
  5
3E0
  8
DATA
  6
CONTINUOUS
 62
     7
 10
175.0
 20
-81.75
 30
0.0
 40
0.4900000000000091
  0
CIRCLE
  5
3E1
  8
DATA
  6
CONTINUOUS
 62
     7
 10
175.0
 20
-81.75
 30
0.0
 40
4.0999999999999934
  0
LINE
  5
3E2
  8
DATA
  6
STYLE_05
 62
     7
 10
161.0
 20
-32.625167644548007
 30
0.0
 11
189.0
 21
-32.625167644548007
 31
0.0
  0
CIRCLE
  5
3E3
  8
DATA
  6
STYLE_05
 62
     7
 10
175.0
 20
-81.75
 30
0.0
 40
24.0
  0
CIRCLE
  5
3E4
  8
DATA
  6
CONTINUOUS
 62
     7
 10
175.0
 20
187.5
 30
0.0
 40
10.5
  0
TEXT
  5
3E5
  8
DATA
 62
     7
 10
149.0719492453598
 20
-134.55636877267699
 30
0.0
 40
8.1442057291666661
  1
ショ－ト時
 41
0.7
 11
149.0719492453598
 21
-126.4121630435103
 31
0.0
 73
     3
  0
CIRCLE
  5
3E6
  8
DATA
  6
STYLE_05
 62
     7
 10
175.0
 20
187.5
 30
0.0
 40
14.0
  0
LINE
  5
3E7
  8
DATA
  6
CONTINUOUS
 62
     7
 10
137.5
 20
-137.5
 30
0.0
 11
212.5
 21
-137.5
 31
0.0
  0
LINE
  5
3E8
  8
DATA
  6
CONTINUOUS
 62
     7
 10
164.5
 20
131.5
 30
0.0
 11
185.5
 21
131.5
 31
0.0
  0
LINE
  5
3E9
  8
DATA
  6
CONTINUOUS
 62
     7
 10
166.15999999999991
 20
132.5
 30
0.0
 11
166.15999999999991
 21
131.5
 31
0.0
  0
LINE
  5
3EA
  8
DATA
  6
CONTINUOUS
 62
     7
 10
183.84
 20
132.5
 30
0.0
 11
183.84
 21
131.5
 31
0.0
  0
LINE
  5
3EB
  8
DATA
  6
STYLE_05
 62
     7
 10
161.90249843945011
 20
140.37483235545201
 30
0.0
 11
188.09750156054989
 21
140.37483235545201
 31
0.0
  0
LINE
  5
3EC
  8
DATA
  6
STYLE_05
 62
     7
 10
161.0
 20
-32.625167644548007
 30
0.0
 11
152.77415865003309
 21
-20.743396805707022
 31
0.0
  0
LINE
  5
3ED
  8
DATA
  6
STYLE_05
 62
     7
 10
189.0
 20
-32.625167644548007
 30
0.0
 11
197.22584134996691
 21
-20.743396805707022
 31
0.0
  0
LINE
  5
3EE
  8
DATA
  6
STYLE_05
 62
     7
 10
152.06791806109689
 20
-18.266806422610209
 30
0.0
 11
159.90499376169441
 21
138.47470758933969
 31
0.0
  0
LINE
  5
3EF
  8
DATA
  6
STYLE_05
 62
     7
 10
190.09500623830559
 20
138.47470758933969
 30
0.0
 11
197.93208193890311
 21
-18.266806422610209
 31
0.0
  0
LINE
  5
3F0
  8
DATA
  6
CONTINUOUS
 62
     7
 10
252.0
 20
-34.0
 30
0.0
 11
252.0
 21
131.5
 31
0.0
  0
LINE
  5
3F1
  8
DATA
  6
CONTINUOUS
 62
     7
 10
253.05500000000001
 20
-37.5
 30
0.0
 11
271.94499999999999
 21
-37.5
 31
0.0
  0
LINE
  5
3F2
  8
DATA
  6
CONTINUOUS
 62
     7
 10
273.0
 20
131.5
 30
0.0
 11
273.0
 21
-34.0
 31
0.0
  0
LINE
  5
3F3
  8
DATA
  6
CONTINUOUS
 62
     7
 10
253.66
 20
132.5
 30
0.0
 11
271.33999999999997
 21
132.5
 31
0.0
  0
LINE
  5
3F4
  8
DATA
  6
CONTINUOUS
 62
     7
 10
273.0
 20
-34.0
 30
0.0
 11
252.0
 21
-34.0
 31
0.0
  0
LINE
  5
3F5
  8
DATA
  6
CONTINUOUS
 62
     7
 10
253.05500000000001
 20
-37.5
 30
0.0
 11
253.05500000000001
 21
-34.0
 31
0.0
  0
LINE
  5
3F6
  8
DATA
  6
CONTINUOUS
 62
     7
 10
271.94499999999999
 20
-37.5
 30
0.0
 11
271.94499999999999
 21
-34.0
 31
0.0
  0
LINE
  5
3F7
  8
DATA
  6
CONTINUOUS
 62
     7
 10
273.0
 20
-12.98000000000002
 30
0.0
 11
252.0
 21
-12.98000000000002
 31
0.0
  0
LINE
  5
3F8
  8
DATA
  6
CONTINUOUS
 62
     7
 10
253.05500000000001
 20
-37.5
 30
0.0
 11
271.94499999999999
 21
-36.507925519216997
 31
0.0
  0
LINE
  5
3F9
  8
DATA
  6
CONTINUOUS
 62
     7
 10
253.05500000000001
 20
-36.0
 30
0.0
 11
271.94499999999999
 21
-35.007925519216997
 31
0.0
  0
LINE
  5
3FA
  8
DATA
  6
CONTINUOUS
 62
     7
 10
253.05500000000001
 20
-34.5
 30
0.0
 11
262.57545454545482
 21
-34.0
 31
0.0
  0
LINE
  5
3FB
  8
DATA
  6
STYLE_05
 62
     7
 10
248.5
 20
-32.625167644548007
 30
0.0
 11
276.5
 21
-32.625167644548007
 31
0.0
  0
LINE
  5
3FC
  8
DATA
  6
CONTINUOUS
 62
     7
 10
252.0
 20
131.5
 30
0.0
 11
273.0
 21
131.5
 31
0.0
  0
LINE
  5
3FD
  8
DATA
  6
CONTINUOUS
 62
     7
 10
253.66
 20
132.5
 30
0.0
 11
253.66
 21
131.5
 31
0.0
  0
LINE
  5
3FE
  8
DATA
  6
CONTINUOUS
 62
     7
 10
271.33999999999997
 20
132.5
 30
0.0
 11
271.33999999999997
 21
131.5
 31
0.0
  0
LINE
  5
3FF
  8
DATA
  6
STYLE_05
 62
     7
 10
249.40249843945
 20
140.37483235545201
 30
0.0
 11
275.59750156054992
 21
140.37483235545201
 31
0.0
  0
LINE
  5
400
  8
DATA
  6
STYLE_05
 62
     7
 10
248.5
 20
-32.625167644548007
 30
0.0
 11
240.2741586500332
 21
-20.743396805707022
 31
0.0
  0
LINE
  5
401
  8
DATA
  6
STYLE_05
 62
     7
 10
276.5
 20
-32.625167644548007
 30
0.0
 11
284.72584134996691
 21
-20.743396805707022
 31
0.0
  0
LINE
  5
402
  8
DATA
  6
STYLE_05
 62
     7
 10
239.56791806109689
 20
-18.266806422610209
 30
0.0
 11
247.40499376169441
 21
138.47470758933969
 31
0.0
  0
LINE
  5
403
  8
DATA
  6
STYLE_05
 62
     7
 10
277.59500623830559
 20
138.47470758933969
 30
0.0
 11
285.43208193890302
 21
-18.266806422610209
 31
0.0
  0
TEXT
  5
404
  8
DATA
 62
     7
 10
-19.314816767901331
 20
302.65450698662528
 30
0.0
 40
8.1442057291666661
  1
ウインドスクリーン
 41
0.7
 11
-19.314816767901331
 21
310.79871271579202
 31
0.0
 73
     3
  0
LINE
  5
405
  8
DATA
  6
CONTINUOUS
 62
     7
 10
-25.0
 20
300.0
 30
0.0
 11
87.5
 21
300.0
 31
0.0
  0
TEXT
  5
406
  8
DATA
 62
     7
 10
206.25309809078601
 20
165.6377875795506
 30
0.0
 40
8.1442057291666661
  1
ウインドスクリーン
 41
0.7
 11
206.25309809078601
 21
173.7819933087172
 31
0.0
 73
     3
  0
LINE
  5
407
  8
DATA
  6
CONTINUOUS
 62
     7
 10
200.0
 20
162.5
 30
0.0
 11
312.5
 21
162.5
 31
0.0
  0
ARC
  5
408
  8
DATA
  6
STYLE_05
 62
     7
 10
-69.95874581625516
 20
-16.475946369237342
 30
0.0
 40
3.9999999999999649
 50
178.05851360908619
 51
213.69006752598011
  0
ARC
  5
409
  8
DATA
  6
STYLE_05
 62
     7
 10
-30.04125418374489
 20
-16.475946369237342
 30
0.0
 40
4.0000000000000089
 50
326.30993247402
 51
1.9414863909137801
  0
ARC
  5
40A
  8
DATA
  6
STYLE_05
 62
     7
 10
17.791254183744879
 20
-16.475946369237391
 30
0.0
 40
4.0000000000000089
 50
178.0585136090854
 51
213.6900675259792
  0
ARC
  5
40B
  8
DATA
  6
STYLE_05
 62
     7
 10
57.708745816255103
 20
-16.475946369237359
 30
0.0
 40
3.9999999999999929
 50
326.3099324740204
 51
1.941486390914178
  0
ARC
  5
40C
  8
DATA
  6
STYLE_05
 62
     7
 10
156.0629274166082
 20
-18.466556890385789
 30
0.0
 40
3.999999999999992
 50
177.1375947738882
 51
214.69515353123401
  0
ARC
  5
40D
  8
DATA
  6
STYLE_05
 62
     7
 10
193.93707258339171
 20
-18.466556890385789
 30
0.0
 40
4.0000000000000009
 50
325.30484646876607
 51
2.8624052261117749
  0
ARC
  5
40E
  8
DATA
  6
STYLE_05
 62
     7
 10
243.5629274166082
 20
-18.46655689038576
 30
0.0
 40
3.9999999999999618
 50
177.13759477388851
 51
214.69515353123441
  0
ARC
  5
40F
  8
DATA
  6
STYLE_05
 62
     7
 10
281.43707258339168
 20
-18.466556890385721
 30
0.0
 40
4.0000000000000338
 50
325.30484646876539
 51
2.8624052261109791
  0
ARC
  5
410
  8
DATA
  6
STYLE_05
 62
     7
 10
249.40249843945
 20
138.37483235545201
 30
0.0
 40
2.0
 50
90.0
 51
177.13759477388831
  0
ARC
  5
411
  8
DATA
  6
STYLE_05
 62
     7
 10
275.59750156054992
 20
138.37483235545201
 30
0.0
 40
1.9999999999999809
 50
2.862405226111771
 51
90.00000000000081
  0
ARC
  5
412
  8
DATA
  6
STYLE_05
 62
     7
 10
188.09750156054989
 20
138.37483235545201
 30
0.0
 40
1.9999999999999809
 50
2.8624052261117838
 51
90.000000000000441
  0
ARC
  5
413
  8
DATA
  6
STYLE_05
 62
     7
 10
161.90249843945011
 20
138.37483235545201
 30
0.0
 40
2.0
 50
90.0
 51
177.13759477388831
  0
ARC
  5
414
  8
DATA
  6
STYLE_05
 62
     7
 10
-62.066647844997242
 20
275.37483235545199
 30
0.0
 40
2.0
 50
90.0
 51
178.05851360908579
  0
ARC
  5
415
  8
DATA
  6
STYLE_05
 62
     7
 10
-37.933352155002808
 20
275.37483235545199
 30
0.0
 40
2.0000000000000391
 50
1.9414863909141571
 51
89.999999999999176
  0
LINE
  5
416
  8
DATA
  6
CONTINUOUS
 62
     7
 10
200.0
 20
162.5
 30
0.0
 11
188.6394697703052
 21
140.30000000000001
 31
0.0
  0
LINE
  5
417
  8
DATA
  6
CONTINUOUS
 62
     7
 10
188.6394697703052
 20
140.30000000000001
 30
0.0
 11
190.85771338105641
 21
149.90826868325391
 31
0.0
  0
LINE
  5
418
  8
DATA
  6
CONTINUOUS
 62
     7
 10
188.6394697703052
 20
140.30000000000001
 30
0.0
 11
195.36465943062521
 21
147.5118829607087
 31
0.0
  0
LINE
  5
419
  8
DATA
  6
CONTINUOUS
 62
     7
 10
-25.0
 20
300.0
 30
0.0
 11
-37.379999999999988
 21
277.296758834939
 31
0.0
  0
LINE
  5
41A
  8
DATA
  6
CONTINUOUS
 62
     7
 10
-37.379999999999988
 20
277.296758834939
 30
0.0
 11
-34.994406828276212
 21
286.86485044326213
 31
0.0
  0
LINE
  5
41B
  8
DATA
  6
CONTINUOUS
 62
     7
 10
-37.379999999999988
 20
277.296758834939
 30
0.0
 11
-30.52996990603102
 21
284.39017264762163
 31
0.0
  0
ARC
  5
41C
  8
DATA
  6
STYLE_05
 62
     7
 10
25.683352155002751
 20
275.37483235545199
 30
0.0
 40
2.0
 50
90.0
 51
178.05851360908579
  0
ARC
  5
41D
  8
DATA
  6
STYLE_05
 62
     7
 10
49.816647844997242
 20
275.37483235545199
 30
0.0
 40
1.9999999999999969
 50
1.9414863909141979
 51
90.0
  0
ENDSEC
  0
EOF
